Song name
# A B C D E F G H I J K L M N O P Q R S T U V W X Y Z

Cky - The Human Drive In Hi-fi tab

"The Human Drive In Hi-Fi"
Tuning: full step down (DGCFAD)

Riff 1
D|---------------------------------|
A|---------------------------------|
F|---------------------------------|
C|---------------------------------|
G|-----5---------8---7---5---7-----|
D|-7-5---7-5-7-5---5---5---7---7---|


Riff 2/verse
D|----------------------------------------------------------------|
A|----------------------------------------------------------------|
F|----------------------------------------------------------------|
C|----------------------------------------------------------------|
G|----------------------------------------------------------------|
D|-7--7-5-7-5-7-5-7--7-5-7-5-7-3-7--7-5-7-5-7-5-7--7-5-7-5-7-3-7--|


Riff 3/chorus
D|-------------------------------------------------------------------------|
A|-------------------------------------------------------------------------|
F|-------------------------------------------------------------------------|
C|---9---9--------------7---7--------------9---9---------------------------|
G|----------5-5/7-------------/9-7-5---------------5-5/7----/9-/9-9-7-5----|
D|-7---7----------5---5---5----------7---7---7-----------5--------------7--|

the little riff at the end of the song comes after "riff 2/verse" is played. it goes 
this:

D|-------------------------------|
A|-------------------------------|
F|-------------------------------|
C|-------------------------------|
G|-7--7-5-7-5-7-5-7--7-5-7-5-/8--|
D|-------------------------------|

end the song on:

D|------------------------------|
A|------------------------------|
F|------------------------------|
C|------------------------------|
G|-9\---------------------------|
D|-7\---------------------------|
Tap to rate this tab
# A B C D E F G H I J K L M N O P Q R S T U V W X Y Z