Song name
# A B C D E F G H I J K L M N O P Q R S T U V W X Y Z

Cky - Stripped Your Speech tab

cKy
Stripped your Speech
Carver City
2009

I don't think they play it this way, but it sounds ok to me.
(Many parts missing)


---------------------------------------------------------|
---------------------------------------------------------|
---------------------------------------------------------|
-6---6---2---4---6----------2--------1--4--1--6----------|
-7---7---4---6---7----0--4--0--0--2-----2-----7----------|
-0---9---5---7---0----------------------------0----------|

---------------------------------------------------------|
---------------------------------------------------------|
--------1-4-1--------------------------------------------|
-6---2--------4-/2--4--4-2-1-----------------------------|
-7---4--------------6--------2---------------------------|
-9---5--------------7------------------------------------|
 8x  3x             8x
Tap to rate this tab
 
# A B C D E F G H I J K L M N O P Q R S T U V W X Y Z