Song name
# A B C D E F G H I J K L M N O P Q R S T U V W X Y Z

Cky - Familiar Realm tab

-------------------------------------------------------------------------------
			     Familiar Realm - CKY
-------------------------------------------------------------------------------
Tabbed by: Jeff Cameron
Email: jcameron99@gmail.com

Tuning: DGCFAd

So I was pretty disheartened at the Familiar Realm 
tabs I found online, so I made one myself.  I 
listened painstakingly to the recording at 
half speed (using Transcribe, fantastic program btw)
to get it all right.  Hope this helps.


Intro (these two harmony parts play throughout verses too)
Guitar 1, dist. flanger
d|------------------------------|
A|------------------------------|
F|------------------------------|
C|-------------2-----2----2-----|
G|--2-4-0---/4---4-2---2--2-----|
D|--------0---------------0-----|
 |        
 |	Guitar 2, dist. flanger
d|------------------------------|
A|------------------------------|
F|------------------------------|
C|-------------2---4-2-4--2-----|
G|--2-4-0---/4---4--------2-----|
D|--------0---------------0-----|
          

Verse 1a
d|-----------------------------------------------------|
A|-----------------------------------------------------|
F|-----------------------------------------------------|
C|----------------------------------2---4-2-4----------|
G|--------------------2--2-4-0---/4---4----------------|
D|--0-0-0-0-0-0-0-0-0-0--------0-----------------------|
                      

d|--------------------------------------------------------------|
A|--------------------------------------------------------------|
F|--------------------------------------------------------------|
C|--------------------------------------------------------------|
G|--0-0-0-7-0-4-0-4-6-7-6-7/9--------9---7------7-9-7-/11-------|
D|-----------------------------7-7-7---7---7-/9-----------------|

d|------------------------------------------------------|
A|------------------------5-----------------------------|
F|----------------------------6-------------------------|
C|--------/6-4----4-------------------4-6----2----------|
G|--------------7---7-4-4---4---4---4-----7--2----------|
D|--0-0-0-------------------------7----------0----------|
      

Verse 1b (vox enter)
d|------------------------------------------------------|
A|------------------------------------------------------|
F|------------------------------------------------------|
C|----------------------------------2---4-2-4--2--------|
G|--------------------2--2-4-0---/4---4--------2--------|
D|--0-0-0-0-0-0-0-0-0-0--------0---------------0--------|
                      

d|--------------------------------------------------------------------------|
A|--------------------------------------------------------------------------|
F|--------------------------------------------------------------------------|
C|----------------------------------------------------------7------9---2----|
G|--2-2-2-2-2-2-2-2-2-4-4-4-4-4-4-4-4-4-6-6-6-7-7-7-7-7-7--------------2----|
D|--0-0-0-0-0-0-0-0-0-2-2-2-2-2-2-2-2-2-4-4-4-5-5-5-5-5-5-5---5-/7--7--0----|
                               

d|------------------------------------------------------|
A|------------------------------------------------------|
F|------------------------------------------------------|
C|----------------------------------2---4-2-4--2--------|
G|--------------------2--2-4-0---/4---4--------2--------|
D|--0-0-0-0-0-0-0-0-0-0--------0---------------0--------|
                      

Verse 1c
d|------------------------------------------------------|
A|------------------------------------------------------|
F|------------------------------------------------------|
C|----------------------------------2---4-2-4--2--------|
G|-------------------------------/4---4--------2--------|
D|--0-0-0-0-0-0-0-0-0---0---0-0-0--------------0--------|
                    

d|--------------------------------------------------------------------------|
A|--------------------------------------------------------------------------|
F|--------------------------------------------------------------------------|
C|----------------------------------------------------------7------9---2----|
G|--2-2-2-2-2-2-2-2-2-4-4-4-4-4-4-4-4-4-6-6-6-7-7-7-7-7-7--------------2----|
D|--0-0-0-0-0-0-0-0-0-2-2-2-2-2-2-2-2-2-4-4-4-5-5-5-5-5-5-5---5-/7--7--0----|
                               

d|------------------------------------------------------|
A|------------------------------------------------------|
F|------------------------------------------------------|
C|----------------------------------2---4-2-4-----------|
G|--------------------2--2-4-0---/4---4-----------------|
D|--0-0-0-0-0-0-0-0-0-0--------0------------------------|
                      

Chorus 1
d|--------------------------------------------------------------|
A|--------------------------------------------------------------|
F|--------------------------------------------------------------|
C|--------------------------------------------------------------|
G|--0-0-0-7-0-4-0-4-6-7-6-/9---------9---7------7-9-7-/11-------|
D|-----------------------------7-7-7---7---7-/9-----------------|

d|------------------------------------------------------|
A|------------------------5-----------------------------|
F|----------------------------6-------------------------|
C|--------/6-4----4-------------------4-6---------------|
G|--------------7---7-4-4---4---4---4-----7-------------|
D|--0-0-0-------------------------7---------------------|
      
d|--------------------------------------------------------------|
A|--------------------------------------------------------------|
F|--------------------------------------------------------------|
C|--------------------------------------------------------------|
G|--0-0-0-7-0-4-0-4-6-7-6-/9---------9---7------7-9-7-/11-------|
D|-----------------------------7-7-7---7---7-/9-----------------|

d|------------------------------------------------------|
A|------------------------5-----------------------------|
F|----------------------------6-------------------------|
C|--------/6-4----4-------------------4-6----2----------|
G|--------------7---7-4-4---4---4---4-----7--2----------|
D|--0-0-0-------------------------7----------0----------|
      

d|------------------------------------------------------|
A|------------------------------------------------------|
F|------------------------------------------------------|
C|----------------------------------2---4-2-4--2--------|
G|--------------------2--2-4-0---/4---4--------2--------|
D|--0-0-0-0-0-0-0-0-0-0--------0---------------0--------|
                      

Verse 2a
d|------------------------------------------------------|
A|------------------------------------------------------|
F|------------------------------------------------------|
C|----------------------------------2---4-2-4--2--------|
G|-------------------------------/4---4--------2--------|
D|--0-0-0-0-0-0-0-0-0---0---0-0-0--------------0--------|
                    

d|--------------------------------------------------------------------------|
A|--------------------------------------------------------------------------|
F|--------------------------------------------------------------------------|
C|----------------------------------------------------------7------9---2----|
G|--2-2-2-2-2-2-2-2-2-4-4-4-4-4-4-4-4-4-6-6-6-7-7-7-7-7-7--------------2----|
D|--0-0-0-0-0-0-0-0-0-2-2-2-2-2-2-2-2-2-4-4-4-5-5-5-5-5-5-5---5-/7--7--0----|
                               

d|------------------------------------------------------|
A|------------------------------------------------------|
F|------------------------------------------------------|
C|----------------------------------2---4-2-4-----------|
G|--------------------2--2-4-0---/4---4-----------------|
D|--0-0-0-0-0-0-0-0-0-0--------0------------------------|
                      

Chorus 2
d|--------------------------------------------------------------|
A|--------------------------------------------------------------|
F|--------------------------------------------------------------|
C|--------------------------------------------------------------|
G|--0-0-0-7-0-4-0-4-6-7-6-/9---------9---7------7-9-7-/11-------|
D|-----------------------------7-7-7---7---7-/9-----------------|

d|------------------------------------------------------|
A|------------------------5-----------------------------|
F|----------------------------6-------------------------|
C|--------/6-4----4-------------------4-6---------------|
G|--------------7---7-4-4---4---4---4-----7-------------|
D|--0-0-0-------------------------7---------------------|
      
d|--------------------------------------------------------------|
A|--------------------------------------------------------------|
F|--------------------------------------------------------------|
C|--------------------------------------------------------------|
G|--0-0-0-7-0-4-0-4-6-7-6-/9---------9---7------7-9-7-/11-------|
D|-----------------------------7-7-7---7---7-/9-----------------|

d|------------------------------------------------------|
A|------------------------5-----------------------------|
F|----------------------------6-------------------------|
C|--------/6-4----4-------------------4-6----2----------|
G|--------------7---7-4-4---4---4---4-----7--2----------|
D|--0-0-0-------------------------7----------0----------|
      

d|------------------------------------------------------|
A|------------------------------------------------------|
F|------------------------------------------------------|
C|----------------------------------2---4-2-4--2--------|
G|--------------------2--2-4-0---/4---4--------2--------|
D|--0-0-0-0-0-0-0-0-0-0--------0---------------0--------|
                      

Solo (backing) Repeat: 6X
d|------------------------------------------------------|
A|------------------------------------------------------|
F|---------------------------------------------4--------|
C|---------/6-4-----------4--------4-------6-------2----|
G|--4-4-4--------4-4-4-/7----2-2-2---2-4-2---2---2------|
D|------------------------------------------------------|

Verse 3a
d|------------------------------------------------------|
A|------------------------------------------------------|
F|------------------------------------------------------|
C|----------------------------------2---4-2-4--2--------|
G|-------------------------------/4---4--------2--------|
D|--0-0-0-0-0-0-0-0-0---0---0-0-0--------------0--------|
                    

d|--------------------------------------------------------------------------|
A|--------------------------------------------------------------------------|
F|--------------------------------------------------------------------------|
C|----------------------------------------------------------7------9---2----|
G|--2-2-2-2-2-2-2-2-2-4-4-4-4-4-4-4-4-4-6-6-6-7-7-7-7-7-7--------------2----|
D|--0-0-0-0-0-0-0-0-0-2-2-2-2-2-2-2-2-2-4-4-4-5-5-5-5-5-5-5---5-/7--7--0----|
                               

d|------------------------------------------------------|
A|------------------------------------------------------|
F|------------------------------------------------------|
C|----------------------------------2---4-2-4-----------|
G|--------------------2--2-4-0---/4---4-----------------|
D|--0-0-0-0-0-0-0-0-0-0--------0------------------------|
                      

Chorus 3
d|--------------------------------------------------------------|
A|--------------------------------------------------------------|
F|--------------------------------------------------------------|
C|--------------------------------------------------------------|
G|--0-0-0-7-0-4-0-4-6-7-6-/9---------9---7------7-9-7-/11-------|
D|-----------------------------7-7-7---7---7-/9-----------------|

d|------------------------------------------------------|
A|------------------------5-----------------------------|
F|----------------------------6-------------------------|
C|--------/6-4----4-------------------4-6---------------|
G|--------------7---7-4-4---4---4---4-----7-------------|
D|--0-0-0-------------------------7---------------------|
      

Outro (repeat to fade)
d|--------------------------------------------------------------|
A|--------------------------------------------------------------|
F|--------------------------------------------------------------|
C|--------------------------------------------------------------|
G|--0-0-0-7-0-4-0-4-6-7-6-/9---------9---7------7-9-7-/11-------|
D|-----------------------------7-7-7---7---7-/9-----------------|

d|------------------------------------------------------|
A|------------------------------------------------------|
F|------------------------------------------------------|
C|--------/6-4----4-------------------------------------|
G|--------------7---------------------------------------|
D|--0-0-0-----------------------------------------------|
      

That is completely right, if you have any doubts slow it down.  Enjoy!

| /  slide up
| \  slide down
| h  hammer-on
| p  pull-off
| ~  vibrato
| +  harmonic
| x  Mute note
===============================================================================
Tap to rate this tab
 
# A B C D E F G H I J K L M N O P Q R S T U V W X Y Z