Cky - Flesh Into Gear tab

LISTEN TO THE SONG FOR THE TIMING AND VARIATION OF THE NOTES
Effects - Distortion & Octaver
youtube.com/HELLIONNUMBER96

Main Riff:
D|----------------------------------------------------------------------|
A|----------------------------------------------------------------------|
F|----------------------------------------------------------------------|
C|-----------------------------------------------------7-5-0-------3-2--|
G|---------------------------------3--5-5-5-5--5--5-5--------5-0-3------|
D|--1--1-1--1-1--1-1---5-1-3-1-3-5--------------------------------------|
PM  .  . .  .    . .                  . . . . 

Chorus:
D|-----------------------------------------------------------|
A|-----------------------------------------------------------|
F|-----------------------------------------------------------|
C|-----------------------------------------------------------|
G|-----------------------------------------------------------|
D|--6-6-6-6-6-6-6-6-6-6-8-8-6-6-5-5-5-5-5-5-5-5-5-5-3-3-1-1--|
PM  . . . . . . . . . . . . . . . . . . . . . . . . . . . .

Bridge:
D|---------------------------------------------------------------|
A|---------------------------------------------------------------|
F|----------------------------------------------------------5-7--|
C|--5-3---------7-5-3-5---3-5-7-5-3---------7-5-3-5---3-5-7------|
G|-------5--5------------------------3--3------------------------|
D|---------------------------------------------------------------|

D|----------------------------------------------------------|
A|----------------------------------------------------------|
F|----------------------------------------------------------|
C|---------7-5-3-5--3-5-7-5-3--------------------------3-2--|
G|--5--5------------------------3--3-----3-5-3-------3------|
D|-------------------------------------5-------5-3-1--------|

D|---------------------------------------------------------|
A|---------------------------------------------------------|
F|----------------------------------------------------5-7--|
C|---------7-5-3-5---3-5-7-5-3---------7-5-3-5--3-5-7------|
G|--1--1------------------------3--3-----------------------|
D|---------------------------------------------------------|

D|-----------------------------------------------------------|
A|-----------------------------------------------------------|
F|------------------------------------------------------5-7--|
C|----------7-5-3-5--3-5-7-5-3----------7-5-3-5---3-5-7------|
G|---5--5------------------------3--3------------------------|
D|-----------------------------------------------------------|

D|------------------------------------------------------------|
A|------------------------------------------------------------|
F|------------------------------------------------------------|
C|---------7-5-3-5--3-5-7-5-3----------------------------3-2--|
G|--5--5------------------------3--3-----3-5-3-------3--------|
D|-------------------------------------5-------5-3-1----------|

D|---------------------------------------------------------|
A|---------------------------------------------------------|
F|----------------------------------------------------5-7--|
C|---------7-5-3-5--3-5-7-5-3----------7-5-3-5--3-5-7------|
G|--1--1------------------------3--3-----------------------|
D|---------------------------------------------------------|

D|-------------------------------------------------------|
A|-------------------------------------------------------|
F|-------------------------------------------------------|
C|----------7-5-3-5--3-5-7-5-3----------7-5-3-5---3-5-7--|
G|---5--5------------------------3--3--------------------|
D|-------------------------------------------------------|

D|-------------------------|
A|-------------------------|
F|-5-7~-5------------------|
C|--------7~-3-5~----------|
G|----------------5-3------|
D|--------------------5-3--|

Tap to rate this tab
 
# A B C D E F G H I J K L M N O P Q R S T U V W X Y Z