Cky - Imaginary Threats tab

"Imaginary Threats"

Tuning: Full Step Down (DGCFAD)

GUITAR 1 INTRO RIFF
|----------------------------------------------------------------|
|----------------------------------------------------------------|
|----------------------------------------------------------------|
|----------------------------------------------------------------|
|----------------------------------------------------------------|
|-4-4-4-4--4-4-4-2-2-2-2--2-2-2-7-7-7-7--7-7-7-9999999999999999--|
PM. . . .  . . . . . . .  . . . . . . .  . . .

|----------------------------------------------------------------|
|----------------------------------------------------------------|
|----------------------------------------------------------------|
|----------------------------------------------------------------|
|----------------------------------------------------------------|
|-4-4-4-4--4-4-4-2-2-2-2--2-2-2-7-7-7-7--7-7-7-0-----------------|
PM. . . .  . . . . . . .  . . . . . . .  . . .

GUITAR 2 INTRO RIFF
|----------------------------------------------------------------|
|----------------------------------------------------------------|
|----------------------------------------------------------------|
|----------------------------------------------------------------|
|----------------------------------------------7777777777777777--|
|-4-4-4-4--4-4-4-2-2-2-2--2-2-2-7-7-7-7--7-7-7-------------------|
PM. . . .  . . . . . . .  . . . . . . .  . . .

|----------------------------------------------------------------|
|----------------------------------------------------------------|
|----------------------------------------------------------------|
|----------------------------------------------------------------|
|----------------------------------------------------------------|
|-4-4-4-4--4-4-4-2-2-2-2--2-2-2-7-7-7-7--7-7-7-0-----------------|
PM. . . .  . . . . . . .  . . . . . . .  . . .

JUST BEFORE THE SONG KICKS IN, IGNORE PLAYING THE OPEN D (0),
AND BOTH GUITARS, PLAY THIS:

|---------------------------------------------------------------|
|---------------------------------------------------------------|
|---------------------------------------------------------------|
|-6---4---------------------------------------------------------|
|---------------------------------------------------------------|
|---4---4-------------------------------------------------------|

GUITAR 1 & 2 CHORUS RIFF
|------------------------------------------------------------------------|
|------------------------------------------------------------------------|
|---------------4-------------4---4/6-------------4-------------4---4/6--|
|-6---6-4---6-------4-6-4-6---------------4---6-------4-6-4-6------------|
|-----------------------------------------------4---4--------------------|
|---4-----4---4---2---------2---2-----0-0---0-----------------2---2------|
(THIS BAR IS ONLY PLAYED TO OPEN THE CHORUS RIFF, AFTER THIS
BAR IS PLAYED ONCE, CONTINUE THE NEXT BAR (WHICH IS BELOW))

|----------------------------------------------------------------------|
|----------------------------------------------------------------------|
|-------------4-------------4---4/6-------------4-------------4---4/6--|
|-----4---6-------4-6-4-6---------------4---6-------4-6-4-6------------|
|---------------------------------------------4---4--------------------|
|-4-4---4---4---2---------2---2-----0-0---0-----------------2---2------|
(REPEAT THIS BAR UNTIL THE LAST BAR THAT ENDS LIKE THIS: )

|-------------------------------------------------------------------------|
|-------------------------------------------------------------------------|
|-------------4-------------4---4/6-------------4----------------4--------|
|-----4---6-------4-6-4-6---------------4---6-------4-6-4-6---------------|
|---------------------------------------------4---4-----------2-----------|
|-4-4---4---4---2---------2---2-----0-0---0-------------------------------|
(THIS BAR COMES AT THE END (CLOSES) OF THE CHORUS RIFF)

GUITAR 1 VERSE RIFF
|-------------------------------------------------------|
|-------------------------------------------------------|
|-------------------------------4---6/8-----------------|
|---------------------------6---------------------------|
|-------------------------------------------------------|
|-4-4-2-4---7-6-7---4/6-4-2---2---2---------------------|

|--------------------------------------------------------------------|
|--------------------------------------------------------------------|
|-----------------------------4---4/6-----------------------4---6/8--|
|-------------------------6-----------------------6-----6------------|
|-------------------------------------------------4------------------|
|-4-2-4---7-6-7---4/6-4-2---2---2-----0-0-0---0-0---------2---2------|

GUITAR 1 VERSE RIFF ENDS WITH THIS:

|-------------------------------------------------------|
|-------------------------------------------------------|
|-------------------------------------------------------|
|-------------------------------------------------------|
|-------------------------------------------------------|
|-4-2-4---7-6-7---4/6-4-0-0-0-0-0-----------------------|
PM                      . . . . .

GUITAR 2 VERSE RIFF
|-------------------------------------------------------|
|-------------------------------------------------------|
|---------------------------4---6/8---------------------|
|--------------------------------------6----------------|
|-------------------------------------------------------|
|-4-4-2-4---4-2-4---4/6-4-2---2------2------------------|

|-----------------------------------------------------------------------|
|-----------------------------------------------------------------------|
|-------------------------4---6/8------------------------4----6/8-------|
|------------------------------------6--------------6----------------6--|
|---------------------------------------------------4-------------------|
|-4-2-4---4-2-4---4/6-4-2---2-----2-----0-0-0---0-0---------2------2----|

GUITAR 2 VERSE RIFF ENDS WITH THIS:

|-------------------------------------------------------|
|-------------------------------------------------------|
|-------------------------------------------------------|
|-------------------------------------------------------|
|-------------------------------------------------------|
|-4-2-4---4-2-4---4/6-4-0-0-0-0-0-----------------------|
PM                      . . . . .

GUITAR 1 BRIDGE RIFF PART 1
|------------------------------------------------------------------|
|------------------------------------------------------------------|
|-8-8---------6-6-------------6-6-----6-6-4-4-----3-3-----3-3------|
|-----6-6-6-6-----6-6-9-9-6-6-----4-4---------4-4-----4-4-----4-4--|
|------------------------------------------------------------------|
|------------------------------------------------------------------|
PM. . . . . . . . . . . . . . . . . . . . . . . . . . . . . . . .
(NOTE: This riff is tremolo picked)

GUITAR 2 BRIDGE RIFF PART 1
|------------------------------------------------------------------|
|------------------------------------------------------------------|
|------------------------------------------------------------------|
|------------------------------------------------------------------|
|-6-6---------4-4-------------4-4-----4-4-2-2-----1-1-----1-1------|
|-----4-4-4-4-----4-4-7-7-4-4-----2-2---------2-2-----2-2-----2-2--|
PM. . . . . . . . . . . . . . . . . . . . . . . . . . . . . . . .
(NOTE: This riff is tremolo picked)

GUITAR 1 BRIDGE RIFF PART 2
|----------------------------------------------------------------------|
|----------------------------------------------------------------------|
|-10-10---------8-8---------------8-8-----8-8-6-6-----5-5-----5-5------|
|-------8-8-8-8-----8-8-11-11-8-8-----6-6---------6-6-----6-6-----6-6--|
|----------------------------------------------------------------------|
|----------------------------------------------------------------------|
PM. . . . . . . . . . . . . . . . . . . . . . . . . . . . . . . . . .
(NOTE: This riff is tremolo picked)

GUITAR 2 BRIDGE RIFF PART 2
|------------------------------------------------------------------|
|------------------------------------------------------------------|
|-6-6---------5-5-5-5---------5-5-----5-5-3-3----------------------|
|-----8-8-8-8---------8-8-8-8-----6-6---------3-3-6-6-3-3-6-6-3-3--|
|------------------------------------------------------------------|
|------------------------------------------------------------------|
PM. . . . . . . . . . . . . . . . . . . . . . . . . . . . . . . .
(NOTE: This riff is tremolo picked)

GUITAR 1 BRIDGE RIFF PART 2 ENDS WITH THIS:

|---------------------------------------------------------------|
|---------------------------------------------------------------|
|-10-10---------8-8---------------8-8-----8-8-6-6---------------|
|-------8-8-8-8-----8-8-11-11-8-8-----6-6---------6-6------4-4--|
|---------------------------------------------------------------|
|------------------------------------------------------2/4------|
PM. . . . . . . . . . . . . . . . . . . . . . . . . .

GUITAR 2 BRIDGE RIFF PART 2 ENDS WITH THIS:

|-----------------------------------------------------------|
|-----------------------------------------------------------|
|-6-6---------5-5-5-5---------5-5-----5-5-3-3----------4-4--|
|-----8-8-8-8---------8-8-8-8-----6-6---------3-3-----------|
|-----------------------------------------------------------|
|--------------------------------------------------2/4------|
PM. . . . . . . . . . . . . . . . . . . . . . . .

THE LAST CHORUS ENDS WITH THIS (ON BOTH GUITARS)
|-------------------------------------------------------|
|-------------------------------------------------------|
|-4-3---4/6---------------------------------------------|
|-----4-------------------------------------------------|
|-----------6-6-----------------------------------------|
|-----------4-4-----------------------------------------|
Tap to rate this tab
 
# A B C D E F G H I J K L M N O P Q R S T U V W X Y Z