Song name
# A B C D E F G H I J K L M N O P Q R S T U V W X Y Z

Cky - The Afterworld tab

LISTEN TO THE SONG FOR THE TIMING AND VARIATION OF THE NOTES
Just Tabbed One Guitar
Effects - Distortion, Octaver, & Clean Tone
youtube.com/HELLIONNUMBER96

Main Riff:
D|--------------------------------------------|--|
A|--------------------------------------------|--|
F|-----------------------------------------9--|--|
C|----------------------------11--------9-----|--|
G|-11-11-11-11-11-11-11-11-11----11-7---------|--|
D|--9--9--9--9--9--9--9--9--9---------0---0---|--|

D|-------------------------------------|--|
A|-------------------------------------|--|
F|-------------------------------------|--|
C|-------------------------------------|--|
G|-9-9-9-9-9-9-9-9-9-7-9-9/10---9---7--|--|
D|-7-7-7-7-7-7-7-7-7----------7---7----|--|

D|---------------------------------|--|
A|---------------------------------|--|
F|-------------------6----------9--|--|
C|---------------------6----9------|--|
G|-7-7-7-7-7-7-7-7-7-----7---------|--|
D|-5-5-5-5-5-5-5-5-5-------0--0----|--|

D|--------------------------------------|
A|--------------------------------------|
F|-----------------------5-6---8---8/9--|
C|---------------------6----------------|
G|-9-9-9-9-9-7-9-9/10-------------------|
D|-7-7-7-7-7----------4------4---4------|

(In The End, Start Again...) Clean Tone
D|-----------------------------------------------------------------------|
A|----------------------------------12-12--------------------------------|
F|------------------8-8-9-9-11-11---------13-13---------9-9-11-11-13-13--|
C|----------------------------------------------14-14--------------------|
G|-----------------------------------------------------------------------|
D|-0-0-0-0-0-0-0-0-0-------------0-0-----------------0-0-----------------|
Tremolo Pic Entire Section

D|--------------------------------------------------------------------------|
A|--------------------------------------------------------------------------|
F|--------------------------------------------------------------------------|
C|---------------------------------------------7-7-----7-7-----7-7-----7-7--|
G|-----11-11-----11-11-----11-11-----11-11----------------------------------|
D|-9-9-------9-9-------9-9-------9-9-------5-5-----5-5-----5-5-----5-5------|
Tremolo Pick Entire Section

(Distortion & Octaver Kick Back In)
D|------------|-No Octave Fill--|--|
A|------------|-----------------|--|
F|------------|-----------------|--|
C|-11---------|------9---9/11---|--|
G|--9--11--11-|-9h11---9------9-|--|
D|------9---9-|-----------------|--|

D|-----------------------------------------------|
A|-----------------------------------------------|
F|-----------------------------------------------|
C|---------------9---9/11---9/11-9------9--------|
G|-11-11-11-9h11---9------9--------11-9---7---7--|
D|--9--9--9---------------------------------9----|

D|-------------------------------------|
A|-------------------------------------|
F|-------------------------------------|
C|-------------------------------------|
G|-------6-9---9h11---9-----6-9--------|
D|-0-0-0-----0------0---0-0-----7-8-9--|
Tap to rate this tab
 
# A B C D E F G H I J K L M N O P Q R S T U V W X Y Z