Cky - Stripped Your Speech tab

CKY - Stripped your speech

This is the parts needed to play 'Stripped your speech' from Carver city.
Feel free to comment if you find something to be wrong.

Tuning: 2 steps down - D Standard.


VERSE:

D|--------------------------------------------------------------------|
A|--------------------------------------------------------------------|
F|-1------1------------------------------------1----------------------|
C|-2------2------------------------------4-----2--------2---------4---|
G|-2------4-----7--7-9/11-9----7---9-----6-----2------4---------6---6-|
D|-0-------------------------5---5---5---7-----0----5-----5-5/7-------|
    x16    x15                            x8    x8


CHORUS:

D|--------------------------------------------------------------------|
A|--------------------------------------------------------------------|
F|-------------------------4------------------------------------------|
C|-222-4--2-4-2--4-2---4/6---6p4/2--4-44---4-2-4-2---1-2--------------|
G|-444-----------0---0--------------2-22-2-----0---0-0---0------------|
D|--------------------------------------------------------------------|



Peace, /Gaavecool
Tap to rate this tab
 
# A B C D E F G H I J K L M N O P Q R S T U V W X Y Z