Song name
# A B C D E F G H I J K L M N O P Q R S T U V W X Y Z

Cky - Rio Bravo tab

-------------------------------------------------------------------------------
			     Rio Bravo - cKy
-------------------------------------------------------------------------------

Tabbed By : Cian Neville
e-mail: maidenfreak64@hotmail.com

Tuning: Drop D


INTRO
G|--------------| 
D|66---6---6---6|
A|--------------|
D|---0---0---0--|

G|-------------------|--------------------------|
D|7-6-5-----------3--|--------------------------|
A|-------5--3-4-5----|7-6-5--0-----0-3-0--------|
D|------------------0|---------5-6-------6-5-3-0|

G|---------------|
D|--------------3| This is the bit just before singing starts. I've changed 
A|--------3-4-5--| the open A to 7th on D because I find it easier when starting 
D|7-6-5-3--------| the bar again.


VERSE
G|--------------|
D|66---6---6---6| 
A|--------------|
D|---0---0---0--|

G|--------------| "Like I don't hear them..."
D|--------------| Listen closely and you'll hear the bass play this.
A|--------------| If you can't hear it, or don't like it, just play the bar above
D|66-0-3-0-3-5-6| again instead, it's kinda hard to hear.


CHORUS
G|-------------------|--------------------------|
D|7-6-5-----------3--|--------------------------|
A|-------5--3-4-5----|7-6-5--0-----0-3-0--------|
D|------------------0|---------5-6-------6-5-3-0|


"PULLED INTO A TRUCKSTOP"
G|----------|-------|
D|----------|-------|
A|----0-3---|-----5-|
D|0-------6-|-5-3---|
  ^Only play that open D the first time


BREAK
G|-----------------|
D|-----------------| This is played once, immediately after singing stops.
A|--------------3--| Let the open D ring.
D|7-6-5-3-5-6-7---0|

G|------------------|
D|------------------| Then repeat this a couple of times.
A|7-7-6-5--------3--| 
E|--------0-55-6---0|


-Chorus (With "PULLED INTO A TRUCKSTOP" in the background, play either. 2 basses?)
-Verse
-"PULLED INTO A TRUCKSTOP" until end

| /  slide up
| \  slide down
| h  hammer-on
| p  pull-off
| ~  vibrato
| +  harmonic
| x  Mute note
===============================================================================
Tap to rate this tab
 
# A B C D E F G H I J K L M N O P Q R S T U V W X Y Z