Song name
# A B C D E F G H I J K L M N O P Q R S T U V W X Y Z

Cky - Plastic Plan tab

Band: Cky - Camp Kill Yourself
Song: Plastic Plan
Album: Infiltrate-Destroy-Rebuild (2002)
Tuning: Standart E A D G B E

Okay. So this is one of Cky's mellow songs...  so just chill out!
The song's relative simple by comparison to other Cky stuff...
So there are just about two riffs: the main riff and the pre-chorus:
 
   | Main Riff (Intro / Chorus)                                             |
 e |------------------|-----------------|-----------------|-----------------|
 B |------------------|-----------------|-----------------|-----------------|
 G |------------------|-----------------|-----------------|-----------------|
 D |------------------|-4-2-------------|-----------------|-----------4-2---|
 A |--0-0-0-0-0-0-0-0-|-----4-2-0-2-4-0-|-----------------|---5-4---2-------|
 E |------------------|-----------------|-2-2-2-2-2-2-2-2-|-2-----5---------|
PM   +++++++++++++++++                   +++++++++++++++++

Verse - The verse is simply just the main riff which is played three times
with a little change at the end of the fourth time...

   | Verse  Pt.#1                                                        3x |
 e |------------------|-----------------|-----------------|-----------------|
 B |------------------|-----------------|-----------------|-----------------|
 G |------------------|-----------------|-----------------|-----------------|
 D |------------------|-4-2-------------|-----------------|-----------4-2---|
 A |--0-0-0-0-0-0-0-0-|-----4-2-0-2-4-0-|-----------------|---5-4---2-------|
 E |------------------|-----------------|-2-2-2-2-2-2-2-2-|-2-----5---------|
PM   +++++++++++++++++                   +++++++++++++++++

   | Verse Pt.#2 (Verse Addition)                                        1x |
 e |------------------|-----------------|-----------------|-----------------|
 B |------------------|-----------------|-----------------|-----------------|
 G |------------------|-----------------|-----------------|-----------------|
 D |------------------|-4-2-------------|-----------------|-----------------|
 A |--0-0-0-0-0-0-0-0-|-----4-2-0-2-4-0-|-----------------|-5-4---2-4-2-4-2-|
 E |------------------|-----------------|-2-2-2-2-2-2-2-2-|-----5-----------|
PM   +++++++++++++++++                   +++++++++++++++++

Pre-Chorus - Only played two times in the song and mostly palm muted...
                                                     
 e |------------------|---------------|-----------------|-------------------|
 B |------------------|---------------|-----------------|-------------------|
 G |------------------|---------------|-----------------|-------------------|
 D |------------------|---------------|-----------------|-------------------|
 A |--0-0-0-0-0-0-0-0-|-0-0-2-0-2-0-4-|-----------------|-------------------|
 E |------------------|---------------|-2-2-2-2-2-2-2-2-|-2-2-2-2-2-2-2-2---|
PM   +++++++++++++++++                 +++++++++++++++++++++++++++++++++++
                                                                            
 e |------------------|-----------------|----------------|------------------|
 B |------------------|-----------------|----------------|------------------|
 G |------------------|-----------------|----------------|------------------|
 D |------------------|-----------------|----------------|------------------|
 A |------------------|---------5-5-4-4-|-2-2----2-2-4-4-|-2-2-2-2-2-2-2-2--|
 E |--3-3-3-3-3-3-3-3-|-3-3-3-3---------|----5-5---------|------------------|
PM   +++++++++++++++++++++++++++

Solo - Actually it's just the bass which plays here but you also can play this
with the guitar. Just play two times the main riff & a little addition at the end...
   | Solo  Pt.#1                                                         2x |
 e |------------------|-----------------|-----------------|-----------------|
 B |------------------|-----------------|-----------------|-----------------|
 G |------------------|-----------------|-----------------|-----------------|
 D |------------------|-4-2-------------|-----------------|-----------4-2---|
 A |--0-0-0-0-0-0-0-0-|-----4-2-0-2-4-0-|-----------------|---5-4---2-------|
 E |------------------|-----------------|-2-2-2-2-2-2-2-2-|-2-----5---------|
PM   +++++++++++++++++                   +++++++++++++++++

   | Solo  Pt.#2 (Solo Addition)                                         1x |
 e |------------------|-----------------|-----------------|-----------------|
 B |------------------|-----------------|-----------------|-----------------|
 G |------------------|-----------------|-----------------|-----------------|
 D |------------------|-----------------|-----------------|-----------------|
 A |--0-0-0-0-0-0-0-0-|-0-0-0-0-5-5-4-4-|-2-2-----2-2-4-4-|-2-2-2-2-2-2-2-2-|
 E |------------------|-----------------|-----5-5---------|-----------------|
PM   +++++++++++++++++++++++++++

Order: Intro (2x Main Riff) - Verse - 2x Pre-Chorus - Chorus (2x Main Riff)
 - 2x Main Riff - 2x Pre-Chorus - Chorus (4x Main Riff) - Solo - Chorus (4x Main Riff) 

So that's it! I know, it looks like a lot but there are only three riffs...
It's kinda easy: You just have to learn #1 The Main riff #2 The Verse Addition
#3 The Pre-Chorus and #4 the Solo Addition and that's it...

It's quiet easy after some practice, so just do what stands in the Order....

If you have any questions or just wanna talk about Cky or other shit  send me a mail:
My Name Is Joko - suburbiabomb@web.de
Tap to rate this tab
 
# A B C D E F G H I J K L M N O P Q R S T U V W X Y Z