Song name
# A B C D E F G H I J K L M N O P Q R S T U V W X Y Z

Cky - To All Of You tab

It's tuned down but I'm not sure what to. I think its a full step but dont take my word 
it.

The actual strumming pattern would take to long to type and i'm sure you know it anyway
>-------------------------------------------------------------------------|
>-------------------------------------------------------------------------|
>--4--2--------------2--4-------------------------------------------------|
>--4--2--5--4--2--5--2--4-----4/3/2----4/3/2---4/3/2--------2-4-2-0-------|
>--2--0--5--4--2--5--0--2---2--------2--------2-------0-0-0---------2-----|
>--------3--2--0--3-------------------------------------------------------|


>-------------------------------------------------------------------------|
>-------------------------------------------------------------------------|
>-------------------------------------------------------------------------|
>--2------2-----2---------------------------------------------------------|
>----0-0------------------------------------------------------------------|
>------------3-----2------------------------------------------------------|

And thats pretty much it! If theres any problems or if you figure out what it's tuned to 
e-mail me at fsuhugh@hotmail.com! p.s. the reason that it's so shoddilly done is 
it's my first tab! Enjoy!
Tap to rate this tab
 
# A B C D E F G H I J K L M N O P Q R S T U V W X Y Z