Song name
# A B C D E F G H I J K L M N O P Q R S T U V W X Y Z

Cky - Sink Into The Underground tab

Tabbed by:col50
Email:coltonmowder@hotmail.com

Tuning: tuned down 1 full step



main riff
|-----------------------------------------------------------------|
|-----------------------------------------------------------------|
|-----------------------------------------------------------------|
|-----------------------------------------------------------------|
|---------6-6-9-9-7-7-6-6-----6-------6-6-4-4-2-2-----------6-4-2-|
|-4-4-7-7-----------------9-9---9-2-2-------------4-4-2-2-4-------|x2

verse
|-------------------------|
|-------------------------|
|-------------------------|
|-6---4/6-6-6-----4---2-4-|
|-6---4/6-6-6-----2---2-2-|
|-4---2/4-4-4-----2---0-2-|x2

pre chorus
|-------------------|
|-------------------|
|-------------------|
|-9-----8---11------|
|-7-----6----9---6--|
|----------------4--|x1

main riff
|-----------------------------------------------------------------|
|-----------------------------------------------------------------|
|-----------------------------------------------------------------|
|-----------------------------------------------------------------|
|---------6-6-9-9-7-7-6-6-----6-------6-6-4-4-2-2-----------6-4-2-|
|-4-4-7-7-----------------9-9---9-2-2-------------4-4-2-2-4-------|x2

verse
|-------------------------|
|-------------------------|
|-------------------------|
|-6---4/6-6-6-----4---2-4-|
|-6---4/6-6-6-----2---2-2-|
|-4---2/4-4-4-----2---0-2-|x2  *second time guitar 1 plays main riff

pre chorus
|-------------------|
|-------------------|
|-------------------|
|-9-----8---11------|
|-7-----6----9---6--|
|----------------4--|x2

Chorus
|-----------------------------------------------------------|
|-----------------------------------------------------------|
|-----------------------------------------------------------|
|-------------------------------3-5--3-5-3-5-3-5---3-5-3-5--|
|-----3-3-5-7----3-8--7-5-7-5---3-5--3-5-3-5-3-5---3-5-3-5--|
|-5-5---------5-------------3---3-5--3-5-3-5-3-5---3-5-3-5--|x2


main riff
|-----------------------------------------------------------------|
|-----------------------------------------------------------------|
|-----------------------------------------------------------------|
|-----------------------------------------------------------------|
|---------6-6-9-9-7-7-6-6-----6-------6-6-4-4-2-2-----------6-4-2-|
|-4-4-7-7-----------------9-9---9-2-2-------------4-4-2-2-4-------|4x


Pre chorus
|-------------------|
|-------------------|
|-------------------|
|-9-----8---11------|
|-7-----6----9---6--|
|----------------4--|x2

Chorus
|-----------------------------------------------------------|
|-----------------------------------------------------------|
|-----------------------------------------------------------|
|-------------------------------3-5--3-5-3-5-3-5---3-5-3-5--|
|-----3-3-5-7----3-8--7-5-7-5---3-5--3-5-3-5-3-5---3-5-3-5--|
|-5-5---------5-------------3---3-5--3-5-3-5-3-5---3-5-3-5--|x4


Ending
---------------|
---------------|
---------------|
-6~------------|
-6~------------|
-4~------------|
Tap to rate this tab
# A B C D E F G H I J K L M N O P Q R S T U V W X Y Z