Song name
# A B C D E F G H I J K L M N O P Q R S T U V W X Y Z

Cky - Derons Jam tab

Title: Deron's Jam (CKY4)
Transcribed by: Kenny


Tuning:Full Step Down


Starting Riff
 -|-----------|
 -|-----------|
 -|-7---------|
 -|---7-5-7---|
 -|-----------|
 -|-----------|


 Main Riff (this is only used once)
 -|------------------------------------------------------------------|
 -|------------------------------------------------------------------|
 -|------------------------------------------------------------------|
 -|------------------------------------------------------------------|
 -|-------7-5-7-----7-5-7---------------------------7-5-7-------7-5--|
 -|-0-0-0-------0-0-------0-0-0-0-0-5-7-8-0-0-0-0-0-------0-0-0------|
 pm . . .       . .       . . . . .       . . . . .       . . .


  Main Riff Variation
 -|---------------------------------------------------------------------|
 -|---------------------------------------------------------------------|
 -|---------------------------------------------------------------------|
 -|---------------------------------------------------------------------|
 -|-------7-5-7-----7-5-7-----------------5-----------7-5-7-------7-5---|
 -|-0-0-0-------0-0-------0-0-0-0-0-5-7-8---0-0-0-0-0-------0-0-0-------|
 pm . . .       . .       . . . . .         . . . . .       . . .


 Short Riff
 Riff 3

 Ending Riff

-|---------------|------------------------------------------------------------|
-|---------------|------------------------------------------------------------|
-|-------7-------|------------------------------------------------------------|
-|---5-----7-5-7-|------------------------------------------------------------|
-|-3---3---------|------------------------------------------------------------|
-|---------------|------------------------------------------------------------|


-|----------------------------------------------------------------------------|
-|----------------------------------------------------------------------------|
-|-----------------------------------------------5----------------7-----------|
-|-------------------------------------------5-----5---5------7-----7-5-7-----|
-|-----7-10-----9-5-----7-10-----9-5-----3-3---3-----3----5-5---5-------------|
-|-0-0------0-0-----0-0------0-0-----0-0--------------------------------------|
pm . .      . .     . .      . .     . .

-|-------------|--------------------------------------------------------------|
-|-------------|--------------------------------------------------------------|
-|-------------|--------------------------------------------------------------|
-|-------------|--------------------------------------------------------------|
-|-------7-5-7-|--------------------------------------------------------------|
-|-0-0-0-------|--------------------------------------------------------------|
pm . . .
Tap to rate this tab
# A B C D E F G H I J K L M N O P Q R S T U V W X Y Z