Song name
# A B C D E F G H I J K L M N O P Q R S T U V W X Y Z

Cky - Shock And Terror tab

Shock and Terror by cKy from the awesome album IDR!

I listened to the song. I watched some videos on youtube (deron's and Dan).
There are a few tabs on ug for this song and they're ok, but not great. So I'll give it a shot :)

The song is in DGCFAD
I use an octave pedal OC-3, but it's not really necessary. It just sounds a bit more cKy'isch

Riff 1 (play 2X)
  
D|---------------------------------------------------------------------|
A|---------------------------------------------------------------------|
F|---------------------------------------------------------------------|
C|-8------2-4-4s6-----------------2-4-4s6----------------2-4-4s6-------|
G|-6-7-44---------2-------7-9-7-4---------2-------9-77-4---------------|
D|------------------4-2-0-------------------4-2-0----------------------|
                  * * * *                 * * * *

D|---------------------------------------------------------------------|
A|---------------------------------------------------------------------|
F|-------------------------44--55--------------------------------------|
C|-----------------2-4-4s6---66--66------------------------------------|
G|-2-------7-9-7-4-----------------------------------------------------|
D|---4-2-0-------------------------------------------------------------|
   * * * *

Riff 2 (switch between A&B)

D|---------------------------------------------------------------------|
A|---------------------------------------------------------------------|
F|-----66----99--44----------------------------------------------------| A
C|-------6677----------------------------------------------------------|
G|-44----------22--33--------------------------------------------------|
D|---------------------------------------------------------------------|

D|---------------------------------------------------------------------|
A|---------------------------------------------------------------------|
F|-----66----99--44----------------------------------------------------| B
C|-------6677----------------------------------------------------------|
G|-44----------22------------------------------------------------------|
D|-----------------5---------------------------------------------------|

Riff 3 (Not 100% correct i guess) 

D|---------------------------------------------------------------------|
A|---------------------------------------------------------------------|
F|-----------4s6----4s6s4----------------------------------------------|
C|---------2----2---------8-8---8--------------------------------------|
G|-2s4s2-4--------2-------9-9--8---9h11h9-7----------------------------|
D|------------------------7-7-7--4-------------------------------------|

The song pretty much repeats itself hereafter. 
I think though they play one part from riff 1 a bit faster.

D|---------------------------------------------------------------------|
A|---------------------------------------------------------------------|
F|-------------------------444--555------------------------------------|
C|---------------------------666--666----------------------------------|
G|---------------------------------------------------------------------|
D|---------------------------------------------------------------------|

That's it, enjoy!!
Tap to rate this tab
# A B C D E F G H I J K L M N O P Q R S T U V W X Y Z