Song name
# A B C D E F G H I J K L M N O P Q R S T U V W X Y Z

Cky - Attached At The Hip tab

Help us improve GuitareTab! Take a short survey!
Tabber: i dont have an account but i have an xbox live account my name is MFCISFUNNY if 
is wrong with tab email me starcraftsniper@hotmail.com

Tuning: Drop C i think... a whole step down from standard.

here it is.


Intro


|------------------3-7-3-7---------| ------------------3-5-3----------|
|--3-3-3-3-3-3-3-3-----------7-3-7-| 3-3-3-3-3-3-3-3-----------7-7-3-7|
|--5-5-5-5-5-5-5-5---------3-------| 5-5-5-5-5-5-5-5---------3--------|
|----------------------------------| ---------------------------------|
|----------------------------------| ---------------------------------|
|----------------------------------| ---------------------------------|

Repeat

|-----
|--3~-
|-----
|-----
|-----
|-----

Bend up slowly

Verse:

|----------------------------|         4x
|--3-3---3-3-3-3-------------|
|--5-5---5-5-5-5-------------|
|----------------------------|
|----------------------------|
|----------------------------|
   . .   . . . .
2nd part of verse 1
|------------------------------------------------------------|
|--6-6-6-6-6-6-6-6-6-6\3------6-6-6-6-6-6-6-6-6-6-6-3-----8--|
|--8-8-8-8-8-8-8-8-8-8--5-----8-8-8-8-8-8-8-8-8-8-8\-5----10-|
|------------------------------------------------------------|
|------------------------------------------------------------|
|------------------------------------------------------------|
   . . . . . . . . . . .      . . . . . . . . . . . .      .
Repeat Until Second Time You go up to the 8/10 but leave it out

Repeat Intro

Repeat Verse

Repeat 2nd part of verse 1

Verse 2:

|-----------6----3------------------------------------------------|
|--3---6----8----5----6------5----3----6--------------6----5----3-|
|--5---8--------------8------7----5----8----6----3----8----7----5-|
|-------------------------------------------8----5----------------|
|-----------------------------------------------------------------|
|-----------------------------------------------------------------|

Repeat

Repeat Intro


Repeat Verse 1

Repeat Verse 2

Intro 2x

There it is. my version of the tab
Related for Attached At The Hip tab