Song name
# A B C D E F G H I J K L M N O P Q R S T U V W X Y Z

Cky - Escape From Hellview tab

Help us improve GuitareTab! Take a short survey!
This is how I play the song. Please rate and comment.

Edited on October 28, 2008.


0:00 - 0:22     Play 3x
------------------------------------------------------------------|
------------------------------------------------------------------|
------------------------------------------------7-------5-6-------|
-----7-------7-8------3-2-5-3---3-7-0-5-7-0-5-0---0-7-0-------7---|
---5---5---5--------5---------5-----------------------------4---4-|
-0-------0--------0-----------------------------------------------|


0:22 - 0:51     I'm not %100 sure on this part, but I know it is close.
--------------------------------------------------------------|
--------------------------------------------------------------|
--------------------------------------------------------------|
-3-2-3-2-----3-2---3-2----3-2-3-2-----3-2---3-2-5-3---3-2-----|
---------3-1-----3-----5----------3-5-----3---------5-----3---|
--------------------------------------------------------------|


0:51 - 1:05
-----------------------------------------------------------------|
-----------------------------------------------------------------|
-----------------------------------------------------------------|
----------------------5-55-55-55-55-55-55-5----------------------|
-2-22-22-22-22-22-22-23-33-33-33-33-33-33-32-22-22-22-22-22-22-2-|
-0-00-00-00-00-00-00-0---------------------0-00-00-00-00-00-00-0-|


0:51 - 1:05  continued
-----------------------------------------|
-----------------------------------------|
-----------------------------------------|
-5-55-55-55-55-55------------------------|
-3-33-33-33-33-33------------------------|
-----------------------------------------|


1:06 - 1:20     Play 2x
------------------------------------------------------------------|
------------------------------------------------------------------|
------------------------------------------------7-------5-6-------|
-----7-------7-8------3-2-5-3---3-7-0-5-7-0-5-0---0-7-0-------7---|
---5---5---5--------5---------5-----------------------------4---4-|
-0-------0--------0-----------------------------------------------|


1:21 - 1:35
--------------------------------------------------------------|
--------------------------------------------------------------|
--------------------------------------------------------------|
-3-2-3-2-----3-2---3-2----3-2-3-2-----3-2---3-2-5-3---3-2-----|
---------3-1-----3-----5----------3-5-----3---------5-----3---|
--------------------------------------------------------------|


1:35 - 1:49
-----------------------------------------------------------------|
-----------------------------------------------------------------|
-----------------------------------------------------------------|
----------------------5-55-55-55-55-55-55-5----------------------|
-2-22-22-22-22-22-22-23-33-33-33-33-33-33-32-22-22-22-22-22-22-2-|
-0-00-00-00-00-00-00-0---------------------0-00-00-00-00-00-00-0-|


1:35 - 1:49  continued
-----------------------------------------|
-----------------------------------------|
-----------------------------------------|
-5-55-55-55-55-55------------------------|
-3-33-33-33-33-33------------------------|
-----------------------------------------|


1:50 - 2:20     Play 4x
------------------------------------------------------------------|
------------------------------------------------------------------|
------------------------------------------------7-------5-6-------|
-----7-------7-8------3-2-5-3---3-7-0-5-7-0-5-0---0-7-0-------7---|
---5---5---5--------5---------5-----------------------------4---4-|
-0-------0--------0-----------------------------------------------|


2:20 - 2:42     Play 3x
--------------------------------------------------------------|
--------------------------------------------------------------|
--------------------------------------------------------------|
-----8--------8-9-----4-3-6-3---3------8--------8-9-----4-3-6-|
-6-6---6--6-6-----6-6---------6----6-6---6--6-6-----6-6-------|
--------------------------------------------------------------|


2:42 - 2:56
-----------------------------------------------------------------|
-----------------------------------------------------------------|
-----------------------------------------------------------------|
----------------------5-55-55-55-55-55-55-5----------------------|
-2-22-22-22-22-22-22-23-33-33-33-33-33-33-32-22-22-22-22-22-22-2-|
-0-00-00-00-00-00-00-0---------------------0-00-00-00-00-00-00-0-|


2:42 - 2:56  continued
-----------------------------------------|
-----------------------------------------|
-----------------------------------------|
-5-55-55-55-55-55------------------------|
-3-33-33-33-33-33------------------------|
-----------------------------------------|


2:56 - 3:09     I'm not really sure whatif anythingis played at this point in the song.
--------------------------------------------------------------|
--------------------------------------------------------------|
--------------------------------------------------------------|
-3-2-3-2-----3-2---3-2----3-2-3-2-----3-2---3-2-5-3---3-2-----|
---------3-1-----3-----5----------3-5-----3---------5-----3---|
--------------------------------------------------------------|


3:10 - End     Play 4x
------------------------------------------------------------------|
------------------------------------------------------------------|
------------------------------------------------7-------5-6-------|
-----7-------7-8------3-2-5-3---3-7-0-5-7-0-5-0---0-7-0-------7---|
---5---5---5--------5---------5-----------------------------4---4-|
-0-------0--------0-----------------------------------------------|
Related for Escape From Hellview tab