Guitaretab - guitar tabs
Song name
# A B C D E F G H I J K L M N O P Q R S T U V W X Y Z

Cky - Frenetic Amnesic tab

Song: Frenetic Amnesic.
Artist: CKY.
Album: Infiltrate-Destroy-Rebuild.
Tuning: Whole step down.
~=let ring.
I'm pretty sure this is at least 95% correct.

Intro:

1------------------------------------|
2------------------------------------|
3------------------------------------|
4------------------------------------|
5-----7-----7-7-5-------7-----7-7-5--|
6-5555-55555-5---8--5555-55555-5---8-|

1--------------------|
2--------------------|
3--------------------|
4--------------------|
5-----5-----5-5h7p5--|
6-3333-33333-3-----8-|

1--------------------|
2--------------------|
3--------------------|
4--------------------|
5-----3-----3-5h7p5--|
6-1111-11111-1-----8-|

Verse 1:

1------------------------------------|
2------------------------------------|
3------------------------------------|
4------------------------------------|
5-----7-----7-7-5-------7-----7-7-5--|
6-5555-55555-5---8--5555-55555-5---8-|

1--------------------|
2--------------------|
3--------------------|
4--------------------|
5-----5-----5-5h7p5--|
6-3333-33333-3-----8-|

1--------------------|
2--------------------|
3--------------------|
4--------------------|
5-----3-----3-5h7p5--|
6-1111-11111-1-----8-|

Chorus:
[ Tab from: http://www.guitaretab.com/c/cky/31351.html ]
1----------|
2----------|
3--------7-|
4---7------|    use wah effect here.
5--7---7---|
6-5---5----|

1------------------------------|
2------------------------------|
3-------------------------5----|
4-77777777777777-33333333-5--5-|
5-77777777777777-33333333-3--5-|
6-55555555555555-11111111----3-|

1-----------------------------|
2-----------------------------|
3-777777777777-5-7-9--9-9-7-3-|
4-777777777777-5-7-9--9-9-7-3-|
5-555555555555-3-5-7--7-7-5-3-|
6-----------------------------|

Verse 2:

1------------------------------------|
2------------------------------------|
3------------------------------------|
4------------------------------------|
5-----7-----7-7-5-------7-----7-7-5--|
6-5555-55555-5---8--5555-55555-5---8-|

1--------------------|
2--------------------|
3--------------------|
4--------------------|
5-----3-----3-5h7p5--|
6-1111-11111-1-----8-|

1--------------------|
2--------------------|
3--------------------|
4--------------------|
5-----5-----5-5h7p5--|
6-3333-33333-3-----8-|

Solo:

1------12-10~--|
2-10~-8------8-|
3--------------|
4--------------|
5--------------|
6--------------|

Outro:

1----------|
2----------|
3--------7-|
4---7------|
5--7---7---|
6-5---5----|

Song Order:
Intro
Verse 1
Chorus
Verse 2
Chorus
Solo
Verse 2 (riff)
Outro

There you go. Enjoy and please rate.
Related for Frenetic Amnesic tab
Advertisement will be closed in 10 seconds