Song name
# A B C D E F G H I J K L M N O P Q R S T U V W X Y Z

Cky - Inhuman Creation Station tab

Part 1
e-------------------------------------------------]]
B-------------------------------------------------]]
G-------2------------------------2----------------]]0
D----3----3-------------------3----3--------------]]0
A-5---------5-3----5-------5---------5-3----5-----]]
E---------------5----5-------------------5----5---]]
Part 2
e---------------------------------------------------|
B---------------------------------------------------|
G-------2-0---0-5--5--2-0---0-----------------------|
D----3------3-------------3-------------------------|
A-3-------------------------------------------------|
E---------------------------------------------------|
Tap to rate this tab
# A B C D E F G H I J K L M N O P Q R S T U V W X Y Z