Song name
# A B C D E F G H I J K L M N O P Q R S T U V W X Y Z

Cky - Shock And Terror tab

sounds best with a Dan Electro black licorice octave distortion.

intro

e|--------------------------------|
b|--------------------------------|
g|--------------------------------|
d|-0--2--0-----0--2--4------------|
a|----------2-----------0---------|
d|-------------------------4-2-0--|

do that 3 times, and then this the fourth:

e|--------------------------------------||
b|--------------------------------------||
g|--------------------------------------||
d|-0--2--0-----0--2--4------------------||
a|----------2-----------00------11------||
d|--------------------------44------44--||

Verse

e|---------------------------------|
b|---------------------------------|
g|-----44--------------------------|
d|---------44--55------------------|
a|-22--------------55------00--11--|
d|---------------------44----------|

e|---------------------------------|
b|---------------------------------|
g|-----44--------------------------|
d|---------44--55------------------|
a|-22--------------55------00------|
d|---------------------44------55--|

e|---------------------------------|
b|---------------------------------|
g|-----44--------------------------|
d|---------44--55------------------|
a|-22--------------55------00--11--|
d|---------------------44----------|

e|---------------------------------||
b|---------------------------------||
g|-----44--------------------------||
d|---------44--55------------------||
a|-22--------------00------11------||
d|---------------------44------44--||

Check the other tabs for the chorus and such,
but they got these part wrong so here you go.
Tap to rate this tab
 
# A B C D E F G H I J K L M N O P Q R S T U V W X Y Z