Song name
# A B C D E F G H I J K L M N O P Q R S T U V W X Y Z

Cky - Close Yet Far tab

-------------------------------------------------------------------------------
			     Close Yet Far - cKy
-------------------------------------------------------------------------------
Tabbed by:Natalie A.

Tuning:standard but a whole step down/DGCFAD

theres more to the song.I would've put the 2nd guitar,but I figure that you could prob 
that yourself.:)


main riff(intro)
e|--------------------------------------------------------|
B|--------------------------------------------------------|
G|--0-----------2----------4-5-5/7-5--4-------------------|(2nd guitar plays
D|------2---2-------0---0---------------5-0---------------|throughout song)
A|--------2-----------0-----------------------------------|
E|--0-----------2-----------------------------------------|x12

CHORUS(Distortion)
        Close   yet   far..
e|------------------------------------------|
B|------------------------------------------|
G|-------9-------7--------------------------| x4
D|-------9-------7------5-------------------|
A|-------7-------5------5-------------------|
E|----------------------3-------------------|

prelude
e|----------------------------------------------------------|
B|----------------------------------------------------------|
G|-------4-----2-----4--------------------------------------|
D|---------7-5-4-0-3-3--------------------------------------|
A|----------------------------------------------------------|
E|----------------------------------------------------------|

verse
e|--------------------------------------------------------|
B|--------------------------------------------------------|
G|--0-----------2----------4-5-5/7-5--4-------------------|
D|------2---2-------0---0---------------5-0---------------|x8
A|--------2-----------0-----------------------------------|
E|--0-----------2-----------------------------------------|

CHORUS


prelude
e|----------------------------------------------------------|
B|----------------------------------------------------------|
G|-------4-----2-----4--------------------------------------|x2
D|---------7-5-4-0-3-3--------------------------------------|
A|----------------------------------------------------------|
E|----------------------------------------------------------|

verse
e|--------------------------------------------------------|
B|--------------------------------------------------------|
G|--0-----------2----------4-5-5/7-5--4-------------------|
D|------2---2-------0---0---------------5-0---------------|
A|--------2-----------0-----------------------------------|x8
E|--0-----------2-----------------------------------------|

prelude
e|----------------------------------------------------------|
B|----------------------------------------------------------|
G|-------4-----2-----4--------------------------------------|x3
D|---------7-5-4-0-3-3--------------------------------------|
A|----------------------------------------------------------|
E|----------------------------------------------------------|


| /  slide up
| \  slide down
| h  hammer-on
| p  pull-off
| ~  vibrato
| +  harmonic
| x  Mute note
===============================================================================
Tap to rate this tab
# A B C D E F G H I J K L M N O P Q R S T U V W X Y Z