Song name
# A B C D E F G H I J K L M N O P Q R S T U V W X Y Z

Cky - And She Never Returned tab

-------------------------------------------------------------------------------
                         ...And She Never Returned - CKY
-------------------------------------------------------------------------------
Tabbed by: Jeff Cameron
Email: jcameron99@gmail.com
7/17/2012

I figured this song out a while back, and it took some real effort.
I canít guarantee the hand positioning, but these are definitely the right notes anyway.
If you feel the urge to move up or down the neck, be my guest :D
There are really only 3 parts to knowing this song, and Iíll include a breakdown 
of the order at the end.

Enjoy!

Tuning: DGCFAd
Each bar consists of 4 beats


Verse Part 1, Distortion
d|------------------------------------------|
A|------------------------------------------|
F|------------------------------------------|
C|------------------------------------------|
G|------------------10----------------------|
D|--0-0-0-0---0-0-0----8-8-8---8-8-8--------|

d|------------------------------------------|
A|------------------------------------------|
F|------------------------------------------|
C|------------------------------------------|
G|--10---------------12-------14------------|
D|-----8-8-8---8-8-8----8-8-8----10-10-10---|


Verse Part 2, Distortion, Palm Muted
d|------------------------------------------|
A|------------------------------------------|
F|------------------------------------------|
C|------------------------------------------|
G|------------------------------------------|
D|--5-5-5-5---3---5---3---5---0---3---------|

d|------------------------------------------|
A|------------------------------------------|
F|------------------------------------------|
C|------------------------------------------|
G|--------------------5---------------------|
D|--7-7-7-7---5---7-------7---5---3---------|


Chorus, Distortion, All 16th Notes
d|------------------------------------------|
A|------------------------------------------|
F|------------------------------------------|
C|--7-7-9-9-9-9-9-9-9-9-9-9-9-9-5-5---------|
G|----------7-7-7-7-7-7-7-7-7-7-------------|
D|----------0-0-0-0-0-0-0-0-0-0-------------|

d|------------------------------------------|
A|------------------------------------------|
F|------------------7-7---------4-4---------|
C|--9-9-5-5-7-7---------5-5-7-7-------------|
G|--------------7-7-------------------------|
D|------------------------------------------|

d|------------------------------------------|
A|------------------------------------------|
F|------------------------------4-4---------|
C|--5-5-4-4---------------------------------|
G|----------5-5-5-5-5-5-5-5-5-5-------------|
D|------------------------------------------|

d|------------------------------------------|
A|------------------------------------------|
F|------------------------------------------|
C|--5-5-4-4---------------------5-5---------|
G|----------5-5-3-3-6-6-7-7-9-9-------------|
D|------------------------------------------|


Chorus Lead Line, Distortion, Occurs on Fourth Repeat
d|----------------------------------------------------------|
A|----------/15---13-12-------------------------------------|
F|--12-11-9-------------12---14b16r14---12-11-14-12-11------|
C|-----------------------------------------------------12---|
G|----------------------------------------------------------|
D|----------------------------------------------------------|


Breakdown, Distortion, 16th Notes
d|------------------------------------------|
A|------------------------------------------|
F|------------------------------------------|
C|--5-5-0-0-2-2-5-5-0-0-2-2-4-4-0-0---------|
G|------------------------------------------|
D|------------------------------------------|

d|------------------------------------------|
A|------------------------------------------|
F|--------------4-4-----2-2-----------------|
C|--5-5-0-0-2-2-----2-2---------0-0---------|
G|--------------------------2-2-------------|
D|------------------------------------------|



Those are all the parts! Here is the order:

Verse Part 1      x4
Verse Part 2 
Verse Part 1      x4
Verse Part 2
Verse Part 1      x4
Verse Part 2      x2
Chorus             x4
Verse Part 2
Verse Part 1      x4
Verse Part 2      x2
Chorus             x4
Breakdown       x6
Verse Part 1      x4
END

Thanks!  Please Rate and Comment!
Tap to rate this tab
 
# A B C D E F G H I J K L M N O P Q R S T U V W X Y Z