Song name
# A B C D E F G H I J K L M N O P Q R S T U V W X Y Z

Cky - Plastic Plan tab

CKY - PLASTIC PLAN
INFILTRATE DESTROY REBUILD

D, A, F, C, G, D

Intro:
|---------------------------------------------------------------------|
|---------------------------------------------------------------------|
|---------------------------------------------------------------------|
|--2-2-2-2-2-2-2-2-2h4-2---------------------------------------4-2~~--|
|--0-0-0-0-0-0-0-0-------4-2-0-2-4-0-4-4-4-4-4-4-4-4-4-5-4-0-2--------|
|------------------------------------2-2-2-2-2-2-2-2-2----------------|
                                                              (Play 2x)

Verse:
|---------------------------------------------------------------------|
|---------------------------------------------------------------------|
|---------------------------------------------------------------------|
|--2-2-2-2-2-2-2-2-2h4-2---------------------------------------4-2~~--|
|--0-0-0-0-0-0-0-0-------4-2-0-2-4-0-4-4-4-4-4-4-4-4-4-5-4-0-2--------|
|------------------------------------2-2-2-2-2-2-2-2-2----------------|
                                                              (Play 3x)

|---------------------------------------------------------------------|
|---------------------------------------------------------------------|
|---------------------------------------------------------------------|
|--2-2-2-2-2-2-2-2-2h4-2----------------------------------------------|
|--0-0-0-0-0-0-0-0-------4-2-0-2-4-0-4-4-4-4-4-4-4-4-4-5-4-0-2-4-2-0--|
|------------------------------------2-2-2-2-2-2-2-2-2----------------|

Pre-chorus:
|-----------------------------------------------------------------|
|-----------------------------------------------------------------|
|-----------------------------------------------------------------|
|--2-2-2-2-2-2-2-2------------------------------------------------|
|--0-0-0-0-0-0-0-0-0-2-0-2-0-4~~-4-4-4-4-4-4-4-4-4-4-4-4-4-4-4-4--|
|--------------------------------2-2-2-2-2-2-2-2-2-2-2-2-2-2-2-2--|
   ...............               ...............................

|-----------------------------------------------------------------|
|-----------------------------------------------------------------|
|-----------------------------------------------------------------|
|-----------------------------------------------------------------|
|--5-5-5-5-5-5-5-5-5-5-5-5-5-4-4-2-2-0-0-2-2-4-4-2-2-2-2-2-2-2-2--|
|--3-3-3-3-3-3-3-3-3-3-3------------------------------------------|
   .....................

|-----------------------------------------------------------------|
|-----------------------------------------------------------------|
|-----------------------------------------------------------------|
|--2-2-2-2-2-2-2-2------------------------------------------------|
|--0-0-0-0-0-0-0-0-0-2-0-2-0-4~~-4-4-4-4-4-4-4-4-4-4-4-4-4-4-4-4--|
|--------------------------------2-2-2-2-2-2-2-2-2-2-2-2-2-2-2-2--|
   ...............               ...............................

|-----------------------------------------------------------------|
|-----------------------------------------------------------------|
|-----------------------------------------------------------------|
|-----------------------------------------------------------------|
|--5-5-5-5-5-5-5-5-5-5-5-5-5-4-4-2-2-0-0-2-2-4-4-2-2-2-2-2-2-2-2--|
|--3-3-3-3-3-3-3-3-3-3-3------------------------------------------|
   .....................
Chorus:
|---------------------------------------------------------------------|
|---------------------------------------------------------------------|
|---------------------------------------------------------------------|
|--2-2-2-2-2-2-2-2-2h4-2---------------------------------------4-2~~--|
|--0-0-0-0-0-0-0-0-------4-2-0-2-4-0-4-4-4-4-4-4-4-4-4-5-4-0-2--------|
|------------------------------------2-2-2-2-2-2-2-2-2----------------|
                                                              (Play 2x)

Verse:
|---------------------------------------------------------------------|
|---------------------------------------------------------------------|
|---------------------------------------------------------------------|
|--2-2-2-2-2-2-2-2-2h4-2---------------------------------------4-2~~--|
|--0-0-0-0-0-0-0-0-------4-2-0-2-4-0-4-4-4-4-4-4-4-4-4-5-4-0-2--------|
|------------------------------------2-2-2-2-2-2-2-2-2----------------|


|---------------------------------------------------------------------|
|---------------------------------------------------------------------|
|---------------------------------------------------------------------|
|--2-2-2-2-2-2-2-2-2h4-2----------------------------------------------|
|--0-0-0-0-0-0-0-0-------4-2-0-2-4-0-4-4-4-4-4-4-4-4-4-5-4-0-2-4-2-0--|
|------------------------------------2-2-2-2-2-2-2-2-2----------------|

Pre-chorus:
|-----------------------------------------------------------------|
|-----------------------------------------------------------------|
|-----------------------------------------------------------------|
|--2-2-2-2-2-2-2-2------------------------------------------------|
|--0-0-0-0-0-0-0-0-0-2-0-2-0-4~~-4-4-4-4-4-4-4-4-4-4-4-4-4-4-4-4--|
|--------------------------------2-2-2-2-2-2-2-2-2-2-2-2-2-2-2-2--|
   ...............               ...............................

|-----------------------------------------------------------------|
|-----------------------------------------------------------------|
|-----------------------------------------------------------------|
|-----------------------------------------------------------------|
|--5-5-5-5-5-5-5-5-5-5-5-5-5-4-4-2-2-0-0-2-2-4-4-2-2-2-2-2-2-2-2--|
|--3-3-3-3-3-3-3-3-3-3-3------------------------------------------|
   .....................

|-----------------------------------------------------------------|
|-----------------------------------------------------------------|
|-----------------------------------------------------------------|
|--2-2-2-2-2-2-2-2------------------------------------------------|
|--0-0-0-0-0-0-0-0-0-2-0-2-0-4~~-4-4-4-4-4-4-4-4-4-4-4-4-4-4-4-4--|
|--------------------------------2-2-2-2-2-2-2-2-2-2-2-2-2-2-2-2--|
   ...............               ...............................

|-----------------------------------------------------------------|
|-----------------------------------------------------------------|
|-----------------------------------------------------------------|
|-----------------------------------------------------------------|
|--5-5-5-5-5-5-5-5-5-5-5-5-5-4-4-2-2-0-0-2-2-4-4-2-2-2-2-2-2-2-2--|
|--3-3-3-3-3-3-3-3-3-3-3------------------------------------------|
   .....................





Chorus:
|---------------------------------------------------------------------|
|---------------------------------------------------------------------|
|---------------------------------------------------------------------|
|--2-2-2-2-2-2-2-2-2h4-2---------------------------------------4-2~~--|
|--0-0-0-0-0-0-0-0-------4-2-0-2-4-0-4-4-4-4-4-4-4-4-4-5-4-0-2--------|
|------------------------------------2-2-2-2-2-2-2-2-2----------------|


|---------------------------------------------------------------------|
|---------------------------------------------------------------------|
|---------------------------------------------------------------------|
|--2-2-2-2-2-2-2-2-2h4-2----------------------------------------------|
|--0-0-0-0-0-0-0-0-------4-2-0-2-4-0-4-4-4-4-4-4-4-4-4-5-4-0-2-4-2-0--|
|------------------------------------2-2-2-2-2-2-2-2-2----------------|


|---------------------------------------------------------------------|
|---------------------------------------------------------------------|
|---------------------------------------------------------------------|
|--2-2-2-2-2-2-2-2-2h4-2---------------------------------------4-2~~--|
|--0-0-0-0-0-0-0-0-------4-2-0-2-4-0-4-4-4-4-4-4-4-4-4-5-4-0-2--------|
|------------------------------------2-2-2-2-2-2-2-2-2----------------|


|---------------------------------------------------------------------|
|---------------------------------------------------------------------|
|---------------------------------------------------------------------|
|--2-2-2-2-2-2-2-2-2h4-2----------------------------------------------|
|--0-0-0-0-0-0-0-0-------4-2-0-2-4-0-4-4-4-4-4-4-4-4-4-5-4-0-2-4-2-0--|
|------------------------------------2-2-2-2-2-2-2-2-2----------------|

Bridge - Guitar 1:
|---------------------------------------------------------------------|
|---------------------------------------------------------------------|
|---------------------------------------------------------------------|
|--2-2-2-2-2-2-2-2-2h4-2---------------------------------------4-2~~--|
|--0-0-0-0-0-0-0-0-------4-2-0-2-4-0-4-4-4-4-4-4-4-4-4-5-4-0-2--------|
|------------------------------------2-2-2-2-2-2-2-2-2----------------|
   ...............                   .................
                                                              (Play 2x)

Bridge - Guitar 2:
|---------------------------------------------------------------------|
|---------------------------------------------------------------------|
|---------------------------------------------------------------------|
|----------------------------7-6--------------------------------------|
|------7-4-----7-4-----7-4-------7-----4-0-----4-0---5-4-0-2-4-2-0~~--|
|--5-5-----5-5-----5-5-----5-------2-2-----2-2-----2------------------|
                                                              (Play 2x)

Bridge 2 - Guitars 1 + 2:
|-----------------------------------------------------------------|
|-----------------------------------------------------------------|
|-----------------------------------------------------------------|
|-----------------------------------------------------------------|
|--5-5-5-5-5-5-5-5-5-5-5-5-5-4-4-2-2-0-0-2-2-4-4-2-2-2-2-2-2-2-2--|
|--3-3-3-3-3-3-3-3-3-3-3------------------------------------------|
   .....................





Chorus:
|---------------------------------------------------------------------|
|---------------------------------------------------------------------|
|---------------------------------------------------------------------|
|--2-2-2-2-2-2-2-2-2h4-2---------------------------------------4-2~~--|
|--0-0-0-0-0-0-0-0-------4-2-0-2-4-0-4-4-4-4-4-4-4-4-4-5-4-0-2--------|
|------------------------------------2-2-2-2-2-2-2-2-2----------------|


|---------------------------------------------------------------------|
|---------------------------------------------------------------------|
|---------------------------------------------------------------------|
|--2-2-2-2-2-2-2-2-2h4-2----------------------------------------------|
|--0-0-0-0-0-0-0-0-------4-2-0-2-4-0-4-4-4-4-4-4-4-4-4-5-4-0-2-4-2-0--|
|------------------------------------2-2-2-2-2-2-2-2-2----------------|


|---------------------------------------------------------------------|
|---------------------------------------------------------------------|
|---------------------------------------------------------------------|
|--2-2-2-2-2-2-2-2-2h4-2---------------------------------------4-2~~--|
|--0-0-0-0-0-0-0-0-------4-2-0-2-4-0-4-4-4-4-4-4-4-4-4-5-4-0-2--------|
|------------------------------------2-2-2-2-2-2-2-2-2----------------|


|---------------------------------------------------------------------|
|---------------------------------------------------------------------|
|---------------------------------------------------------------------|
|--2-2-2-2-2-2-2-2-2h4-2----------------------------------------------|
|--0-0-0-0-0-0-0-0-------4-2-0-2-4-0-4-4-4-4-4-4-4-4-4-5-4-0-2-4-2-0--|
|------------------------------------2-2-2-2-2-2-2-2-2----------------|
Tap to rate this tab
# A B C D E F G H I J K L M N O P Q R S T U V W X Y Z