Song name
# A B C D E F G H I J K L M N O P Q R S T U V W X Y Z

Cky - Dressed In Decay tab

CKY - Dressed in Decay
From the album "An Answer Can Be Found"
Tabbed by Eric Jenssen
Tuning: DGCFAD (whole step down)

Palm muting not included.
Tabbed while watching "Deron Miller instructional DVD".
This is for Deron's guitar, I'm not familiar with what Chad plays during this song.

  INTRO

D|------------------------------------------------------------------|
A|------------------------------------------------------------------|
F|------------------------------------------------------4-4---------|
C|----------------------5-5-----5/7-----5-5-----7-7---------5-5-----|
G|----------5-5-7-7-----------------7-7-----7-7-----7-7---------7-7-|
D|--3-3-3-3---------3-3-----3-3-------------------------------------|

D|------------------------------------------------------------------|
A|------------------------------------------------------------------|
F|------------------------------------------------------4-4---------|
C|----------7-7-4-4-----5-5-----5/7-----5-5-----7-7---------5-5-----|
G|--3-3-3-3---------3-3-----3-3-----7-7-----7-7-----7-7---------7-7-|
D|------------------------------------------------------------------|

D|------------------------------------------------------------------|
A|------------------------------------------------------------------|
F|------------------------------------------------------4-4---------|
C|----------------------5-5-----5/7-----5-5-----7-7---------5-5-----|
G|----------5-5-7-7-----------------7-7-----7-7-----7-7---------7-7-|
D|--3-3-3-3---------3-3-----3-3-------------------------------------|

D|------------------------------------------------------------------|
A|------------------------------------------------------------------|
F|------------------------------------------------------4-4---------|
C|----------7-7-4-4-----5-5-----5/7-----5-5-----7-7---------5-5-----|
G|--3-3-3-3---------3-3-----3-3-----7-7-----7-7-----7-7---------7-7-|
D|------------------------------------------------------------------|


  PRE-CHORUS

D|------------------------------------------------------------------|
A|------------------------------------------------------------------|
F|---------------------4-4-----4/6----------------------------4-4---|
C|---------4-4-6-6-------------------------2-2-4-4-----6-6----------|
G|-2-2-2-2---------2-2-----2-2------4-4-4-4---------4-4-----4-4-----|
C|------------------------------------------------------------------|

D|------------------------------------------------------------------|
A|------------------------------------------------------------------|
F|---------------------4-4-----4/6----------------------------4-4---|
C|---------4-4-6-6-------------------------2-2-4-4-----6-6----------|
G|-2-2-2-2---------2-2-----2-2-----4-4-4-4---------4-4-----4-4------|
C|------------------------------------------------------------------|

D|------------------------------------------------------------------|
A|------------------------------------------------------------------|
F|---------------------4-4-----4/6----------------------------4-4---|
C|---------4-4-6-6-------------------------2-2-4-4-----6-6----------|
G|-2-2-2-2---------2-2-----2-2-----4-4-4-4---------4-4-----4-4------|
C|------------------------------------------------------------------|

D|------------------------------------------------------------------|
A|------------------------------------------------------------------|
F|---------------------4-4-----4/6----------------------------4-4---|
C|---------4-4-6-6-------------------------2-2-4-4-----6-6----------|
G|-2-2-2-2---------2-2-----2-2-----4-4-4-4---------4-4-----4-4------|
C|------------------------------------------------------------------|


  CHORUS

D|----------------------------------------------------------------------|
A|----------------------------------------------------------------------|
F|---------------4---3---------------------4---6---6/8--------4---9---8-|
C|-------4---6-----------4---6---4-----4/6----------------4/6---6---4---|
G|-----6-----------2---2---2---2----------------------------------------|
D|-4-4-----4---4-------------------0-0-------0---0----0-0---------------|

D|----------------------------------------------------------------------|
A|----------------------------------------------------------------------|
F|---------------4---3---------------------4---6---6/8------------------|
C|-------4---6-----------4---6---4-----4/6------------------------------|
G|-----6-----------2---2---2---2----------------------------2---7---6---|
D|-4-4-----4---4-------------------0-0-------0---0----0-0-4---4---2-----|

D|----------------------------------------------------------------------|
A|----------------------------------------------------------------------|
F|---------------4---3---------------------4---6---6/8--------4---9---8-|
C|-------4---6-----------4---6---4-----4/6----------------4/6---6---4---|
G|-----6-----------2---2---2---2----------------------------------------|
D|-4-4-----4---4-------------------0-0-------0---0----0-0---------------|

D|----------------------------------------------------------------------|
A|----------------------------------------------------------------------|
F|---------------4---3---------------------4---6---6/8------------------|
C|-------4---6-----------4---6---4-----4/6------------------------------|
G|-----6-----------2---2---2---2----------------------------2---7---6---|
D|-4-4-----4---4-------------------0-0-------0---0----0-0-4---4---2-----|

  INTRO

D|------------------------------------------------------------------|
A|------------------------------------------------------------------|
F|------------------------------------------------------4-4---------|
C|----------------------5-5-----5/7-----5-5-----7-7---------5-5-----|
G|----------5-5-7-7-----------------7-7-----7-7-----7-7---------7-7-|
D|--3-3-3-3---------3-3-----3-3-------------------------------------|

D|------------------------------------------------------------------|
A|------------------------------------------------------------------|
F|------------------------------------------------------4-4---------|
C|----------7-7-4-4-----5-5-----5/7-----5-5-----7-7---------5-5-----|
G|--3-3-3-3---------3-3-----3-3-----7-7-----7-7-----7-7---------7-7-|
D|------------------------------------------------------------------|

D|------------------------------------------------------------------|
A|------------------------------------------------------------------|
F|------------------------------------------------------4-4---------|
C|----------------------5-5-----5/7-----5-5-----7-7---------5-5-----|
G|----------5-5-7-7-----------------7-7-----7-7-----7-7---------7-7-|
D|--3-3-3-3---------3-3-----3-3-------------------------------------|

D|------------------------------------------------------------------|
A|------------------------------------------------------------------|
F|------------------------------------------------------4-4---------|
C|----------7-7-4-4-----5-5-----5/7-----5-5-----7-7---------5-5-----|
G|--3-3-3-3---------3-3-----3-3-----7-7-----7-7-----7-7---------7-7-|
D|------------------------------------------------------------------|

  PRE-CHORUS
 
D|------------------------------------------------------------------|
A|------------------------------------------------------------------|
F|---------------------4-4-----4/6----------------------------4-4---|
C|---------4-4-6-6-------------------------2-2-4-4-----6-6----------|
G|-2-2-2-2---------2-2-----2-2------4-4-4-4---------4-4-----4-4-----|
C|------------------------------------------------------------------|

D|------------------------------------------------------------------|
A|------------------------------------------------------------------|
F|---------------------4-4-----4/6----------------------------4-4---|
C|---------4-4-6-6-------------------------2-2-4-4-----6-6----------|
G|-2-2-2-2---------2-2-----2-2-----4-4-4-4---------4-4-----4-4------|
C|------------------------------------------------------------------|

D|------------------------------------------------------------------|
A|------------------------------------------------------------------|
F|---------------------4-4-----4/6----------------------------4-4---|
C|---------4-4-6-6-------------------------2-2-4-4-----6-6----------|
G|-2-2-2-2---------2-2-----2-2-----4-4-4-4---------4-4-----4-4------|
C|------------------------------------------------------------------|

D|------------------------------------------------------------------|
A|------------------------------------------------------------------|
F|---------------------4-4-----4/6----------------------------4-4---|
C|---------4-4-6-6-------------------------2-2-4-4-----6-6----------|
G|-2-2-2-2---------2-2-----2-2-----4-4-4-4---------4-4-----4-4------|
C|------------------------------------------------------------------|

  CHORUS

D|----------------------------------------------------------------------|
A|----------------------------------------------------------------------|
F|---------------4---3---------------------4---6---6/8--------4---9---8-|
C|-------4---6-----------4---6---4-----4/6----------------4/6---6---4---|
G|-----6-----------2---2---2---2----------------------------------------|
D|-4-4-----4---4-------------------0-0-------0---0----0-0---------------|

D|----------------------------------------------------------------------|
A|----------------------------------------------------------------------|
F|---------------4---3---------------------4---6---6/8------------------|
C|-------4---6-----------4---6---4-----4/6------------------------------|
G|-----6-----------2---2---2---2----------------------------2---7---6---|
D|-4-4-----4---4-------------------0-0-------0---0----0-0-4---4---2-----|

D|----------------------------------------------------------------------|
A|----------------------------------------------------------------------|
F|---------------4---3---------------------4---6---6/8--------4---9---8-|
C|-------4---6-----------4---6---4-----4/6----------------4/6---6---4---|
G|-----6-----------2---2---2---2----------------------------------------|
D|-4-4-----4---4-------------------0-0-------0---0----0-0---------------|

D|----------------------------------------------------------------------|
A|----------------------------------------------------------------------|
F|---------------4---3---------------------4---6---6/8------------------|
C|-------4---6-----------4---6---4-----4/6------------------------------|
G|-----6-----------2---2---2---2----------------------------2---7---6---|
D|-4-4-----4---4-------------------0-0-------0---0----0-0-4---4---2-----|

  INTRO (with effect)
  - I'm not 100% sure whether he plays single or double notes, but I assume it's single.
    You might want to check that out to be sure.

D|-------------------------------------|
A|-------------------------------------|
F|------------------------------4------|
C|------------5---5/7---5---7-----5----|
G|------5-7-----------7---7---7-----7--|
D|--3-3-----3---3----------------------|

D|-------------------------------------|
A|-------------------------------------|
F|------------------------------4------|
C|------7-4---5---5/7---5---7-----5----|
G|--3-3-----3---3-----7---7---7-----7--|
D|-------------------------------------|

D|-------------------------------------|
A|-------------------------------------|
F|------------------------------4------|
C|------------5---5/7---5---7-----5----|
G|------5-7-----------7---7---7-----7--|
D|--3-3-----3---3----------------------|

D|-------------------------------------|
A|-------------------------------------|
F|------------------------------4------|
C|------7-4---5---5/7---5---7-----5----|
G|--3-3-----3---3-----7---7---7-----7--|
D|-------------------------------------|

D|-------------------------------------|
A|-------------------------------------|
F|------------------------------4------|
C|------------5---5/7---5---7-----5----|
G|------5-7-----------7---7---7-----7--|
D|--3-3-----3---3----------------------|

D|-------------------------------------|
A|-------------------------------------|
F|------------------------------4------|
C|------7-4---5---5/7---5---7-----5----|
G|--3-3-----3---3-----7---7---7-----7--|
D|-------------------------------------|

D|-------------------------------------|
A|-------------------------------------|
F|------------------------------4------|
C|------------5---5/7---5---7-----5----|
G|------5-7-----------7---7---7-----7--|
D|--3-3-----3---3----------------------|

D|-------------------------------------|
A|-------------------------------------|
F|------------------------------4------|
C|------7-4---5---5/7---5---7-----5----|
G|--3-3-----3---3-----7---7---7-----7--|
D|-------------------------------------|

  CHORUS

D|----------------------------------------------------------------------|
A|----------------------------------------------------------------------|
F|---------------4---3---------------------4---6---6/8--------4---9---8-|
C|-------4---6-----------4---6---4-----4/6----------------4/6---6---4---|
G|-----6-----------2---2---2---2----------------------------------------|
D|-4-4-----4---4-------------------0-0-------0---0----0-0---------------|

D|----------------------------------------------------------------------|
A|----------------------------------------------------------------------|
F|---------------4---3---------------------4---6---6/8------------------|
C|-------4---6-----------4---6---4-----4/6------------------------------|
G|-----6-----------2---2---2---2----------------------------2---7---6---|
D|-4-4-----4---4-------------------0-0-------0---0----0-0-4---4---2-----|

D|----------------------------------------------------------------------|
A|----------------------------------------------------------------------|
F|---------------4---3---------------------4---6---6/8--------4---9---8-|
C|-------4---6-----------4---6---4-----4/6----------------4/6---6---4---|
G|-----6-----------2---2---2---2----------------------------------------|
D|-4-4-----4---4-------------------0-0-------0---0----0-0---------------|

D|----------------------------------------------------------------------|
A|----------------------------------------------------------------------|
F|---------------4---3---------------------4---6---6/8------------------|
C|-------4---6-----------4---6---4-----4/6------------------------------|
G|-----6-----------2---2---2---2----------------------------2---7---6---|
D|-4-4-----4---4-------------------0-0-------0---0----0-0-4---4---2-----|


Please rate and leave some feedback, this shit took me a while.
Tap to rate this tab
# A B C D E F G H I J K L M N O P Q R S T U V W X Y Z