Song name
# A B C D E F G H I J K L M N O P Q R S T U V W X Y Z

Cky - The Way You Lived tab

Tabbed by Cieux while watching Deron Miller Instructional tab dvd. 
Only Deron's part, no solo. Listen to the track to know how many times 
you have to play each part. 
The tuning is D standard (one whole step down)

|--------------------|-------------------|
|--------------------|-------------------|
|-11-----------------|-------------------|
|-12---------7h9/12--|-------------------|
|-14----14/9---------|-------------12----|
|--------------------|-9h10-10--12----5--|

|-------------------------------------------|
|-------------------------------------------|
|-------------------------------------------|
|------5--------7---------------------------|
|-5-----------------7-5-4----9----(7)/9/7/5-|
|-3--3---3--3/5---5-------5--7--9-----------|

|------------------------------------------------------------|
|------------------------------------------------------------|
|-----------------------------------6------------------------|
|-------2-------------4---------7------7---7-----------------|
|---4-----4---4---5-----5---5-----------------9----(7)/9/7/5-|
|-5---5-----5---3---3-----3---5---5------5----7--9-----------|

|--------------------------------------------||-----------------------------------------|
|--------------------------------------------||-----------------------------------------|
|-----------------------------------6--------||-----------------------------11----------|
|-------2-------------4---------7------7---7-||--------------------------------12/14/12-|
|---4-----4---4---5-----5---5----------------||-----------------------------------------|
|-5---5-----5---3---3-----3---5---5------5---||-5-7---3-3-5---2-5-7---3-3-5-------------|
                                                p p   p p p   p p p   p p p

|-------------------------------|--------------------------------|
|-------------------------------|--------------------------------|
|-----11------14-----9-------11-|-----11------14-----11----------|
|--------9-12----------11-12----|--------9-12-----------12/14/12-|
|-------------------------------|--------------------------------|
|-5-7------------3-5------------|-5-7------------3-5-------------|
  p p            p p              p p            p p
Tap to rate this tab
 
# A B C D E F G H I J K L M N O P Q R S T U V W X Y Z