Song name
# A B C D E F G H I J K L M N O P Q R S T U V W X Y Z

Cky - Sporadic Movement tab

Song:Sporadic Movement
Album:Infiltrate-Destroy-Rebuild
Artist:CKY
Genre:Alternative Metal
Year:2002
Tuning:Whole-Step Down (D,G,C,F,A,D)

Intro 1 Pt.1 x4
D---------------------|
A---------------------|
F---------------------|
C---------------------|
G---7----6----7----6--|
D-5---55---55---55----|

Intro 1 Pt.2 x1
D------------------|
A------------------|
F------------------|
C------------------|
G-7-7-5-3-2--------|
D-----------3-0-3--|

Verse 1 x4
D---------------------|
A---------------------|
F---------------------|
C---------------------|
G---7----6----7----6--|
D-5---55---55---55----|

Pre-Chorus 1 Pt.1 x1
D-----------------------------|
A-----------------------------|
F-----------------------------|
C------(         x2        )--|
G---------7----6----7----6----|
D-1x32--5---55---55---55------|
  .
Pre-Chorus 1 Pt.2 x1
D-----------------------------------------|
A-----------------------------------------|
F(        x2       )-(       x2        )--
C---------------333-----------------555---|
G-----------------------------------------|
D-1111111111111-------3333333333333-------|
  .............       .............

Chorus 1 Pt.1 x1
D-------------------------------------------|
A-------------------------------------------|
F-------------------------------------------|
C-------------------------------------------|
G------8888------7777------5555------55-33--|
D-5555------5555------3333------1111--------|

Chorus 1 Pt.2 x3
D-------------------------------------------|
A-------------------------------------------|
F-------------------------------------------|
C-------------------------------------------|
G------8888------7777------5555------55-33--|
D-5555------5555------3333------1111--------|

Pre-Verse 1 Pt.1 x5
D---------------------|
A---------------------|
F---------------------|
C---------------------|
G---7----6----7----6--|
D-5---55---55---55----|

Pre-Verse 1 Pt.2 x1
D-------------------|
A-------------------|
F-------------------|
C-------------------|
G-7-7-5-3-2---------|
D------------3-0-3--|

Then:
*Verse 2 x4
*Pre-Chorus 2 Pt.1 x1
*Pre-Chorus 2 Pt.2 x1
*Chorus 2 Pt.1 x1
*Chorus 2 Pt.2 x3

Interlude x1
D------------|
A------------|
F------------|
C-7~~~~~~~~--
G-7~~~~~~~~--
D-5~~~~~~~~--

Breakdown x1
D-----------------|
A-----------------|
F-----------------|
C-3~~~~~--5~~~~~--|
G-3~~~~~--5~~~~~--|
D-1~~~~~--3~~~~~--|

Outro x8
D---------------------|
A---------------------|
F---------------------|
C---------------------|
G---7----6----7----6--|
D-5---55---55---55----|

Song Order:
*Intro 1 Pt.1 x4
*Intro 1 Pt.2 x1
*Verse 1 x4
*Pre-Chorus 1 Pt.1 x1
*Pre-Chorus 1 Pt.2 x1
*Chorus 1 Pt.1 x1
*Chorus 1 Pt.2 x3
*Pre-Verse 1 Pt.1 x5
*Pre-Verse 1 Pt.2 x1
*Verse 2 x4
*Pre-Chorus 2 Pt.1 x1
*Pre-Chorus 2 Pt.2 x1
*Chorus 2 Pt.1 x1
*Chorus 2 Pt.2 x3
*Interlude x1
*Breakdown x1
*Outro x8

*Here Is A Link If You Wanna Play Along:
http://www.youtube.com/watch?v=eIGKJnOY-gU

*Don't Forget To Rate And Comment If You Liked The Tab, And Comment Any
Corrections, I Welcome Corrections.
Tap to rate this tab
# A B C D E F G H I J K L M N O P Q R S T U V W X Y Z