Song name
# A B C D E F G H I J K L M N O P Q R S T U V W X Y Z

Cky - Attached At The Hip tab

Song:Attached At The Hip
Album:Infiltrate-Destroy-Rebuild
Artist:CKY
Genre:Alternative Metal
Year:2002
Tuning:Half-Step Down (Eb,Ab,Db,Gb,Bb,Eb)

Intro x4
Eb---------------------------|
Bb-------------------5-3-----|
Gb-------------2---2-------2-|
Db-44444444--4---4-------4---|
Ab-22222222------------------|
Eb---------------------------|

Verse 1 x1
Eb---------------------|
Bb---------------------|
Gb---------------------|
Db(   x4  )-(   x4  )--
Ab-22-2222---5x12--2---|
Eb---------------------|

Chorus 1 x4
Eb----------------------------|
Bb-------------------5-3------|
Gb-------------2---2-------2--|
Db-44444444--4---4-------4----|
Ab-22222222-------------------|
Eb----------------------------|

Then:
*Verse 2 x1

Pre-Chorus 1 x4
Eb--------------------------------------------------|
Bb--------------------------------------------------|
Gb-4~~--4~~-44--7-77--------------------7-77--6-66--|
Db-4~~--4~~-44--7-77-5-55--7~~--7~~-77--7-77--6-66--|
Ab-2~~--2~~-22--5-55-5-55--7~~--7~~-77--5-55--4-44--|
Eb-------------------3-33--5~~--5~~-55--------------|

Then:
*Chorus 2 x4

Bridge 1 x4
Eb--------------------------------------------------|
Bb--------------------------------------------------|
Gb-4~~--4~~-44--7-77--------------------7-77--6-66--|
Db-4~~--4~~-44--7-77-5-55--7~~--7~~-77--7-77--6-66--|
Ab-2~~--2~~-22--5-55-5-55--7~~--7~~-77--5-55--4-44--|
Eb-------------------3-33--5~~--5~~-55--------------|

Chorus 3 x4
Eb----------------------------|
Bb-------------------5-3------|
Gb-------------2---2----------|
Db-44444444--4---4-------4-2--|
Ab-22222222-------------------|
Eb----------------------------|

Song Order:
*Intro x4
*Verse 1 x1
*Chorus 1 x4
*Verse 2 x1
*Pre-Chorus 1 x4
*Chorus 2 x4
*Bridge 1 x4
*Chorus 3 x4

*Here Is A Link If You Wanna Play Along:
http://www.youtube.com/watch?v=gue_crpFdSE

*Don't Forget To Rate And Comment If You Liked The Tab, And Comment Any
Corrections, I Welcome Corrections.
Tap to rate this tab
# A B C D E F G H I J K L M N O P Q R S T U V W X Y Z