Song name
# A B C D E F G H I J K L M N O P Q R S T U V W X Y Z

Cky - Inhuman Creation Station tab

Song:Inhuman Creation Station
Album:Infiltrate-Destroy-Rebuild
Artist:CKY
Genre:Alternative Metal
Year:2002
Tuning:Whole-Step Down (D,G,C,F,A,D)

Intro 1 Pt.1 x4
D-----------------------|
A-----------------------|
F-----------------------|
C----5-7----------------|
G-/7-----5--------------|
D----------7-0-000-000--|

Intro 1 Pt.2 x1
D----------------------------|
A----------------------------|
F----------------------------|
C----4-5p4-2p0----9-7p5-4h5--|
G-/5------------2------------|
D----------------------------|

Then:
*Intro 1 Pt.1 x2

Verse 1 Pt.1 x4
D-----------------------|
A-----------------------|
F-----------------------|
C----5-7----------------|
G-/7-----5--------------|
D----------7-0-000-000--|

Verse 1 Pt.2 x1
D----------------------------|
A----------------------------|
F----------------------------|
C----4-5p4-2p0----9-7p5-4h5--|
G-/5------------2------------|
D----------------------------|

Then:
*Verse 1 Pt.1 x6
*Verse 1 Pt.2 x1
*Verse 1 Pt.1 x1
*Verse 1 Pt.2 x1
*Verse 1 Pt.1 x1

Bridge 1 Pt.1 x8
D-------------------|
A-------------------|
F-------------------|
C-----0h4-5----2~~--|
G-0h2----------2~~--|
D-----------00-0~~--|

Bridge 1 Pt.2 x1
D------------------|
A------------------|
F------------------|
C-----0h4-----0h4--|
G-0h2-----0h2------|
D------------------|

Chorus 1 Pt.1 x1
D-----------------------------------|
A-----------------------------------|
F(          P.M         )--X--------|
C--------------------------X---X-7--|
G-3x16--------3x16---------X-5-X----|
D-------0x16--------0x16-------X----|

Chorus 1 Pt.2 x1
D-------------------------------|
A-------------------------------|
F-------------------------------|
C(            P.M            )--|
G-3x18--2222--------------------|
D------------3333-555555-0x32---|

D------------------------------------|
A------------------------------------|
F------------------------------------|
C(             P.M           )-------|
G-3x18--2222--------------------X-5--|
D------------3333-555555-0x24--------|

Post-Chorus 1 x1
D-------------------------------------|
A-------------------------------------|
F(       x4       )-------------------|
C-----0h4-5----2~~-------0h4-----0h4--|
G-0h2----------2~~---0h2-----0h2------|
D-----------00-0~~--------------------|

Verse 2 Pt.1 x4
D-----------------------|
A-----------------------|
F-----------------------|
C----5-7----------------|
G-/7-----5--------------|
D----------7-0-000-000--|

Verse 2 Pt.2 x1
D----------------------------|
A----------------------------|
F----------------------------|
C----4-5p4-2p0----9-7p5-4h5--|
G-/5------------2------------|
D----------------------------|

Then:
*Verse 2 Pt.1 x6
*Verse 2 Pt.2 x1
*Verse 2 Pt.1 x1
*Verse 2 Pt.2 x1
*Verse 2 Pt.1 x1

Bridge 2 Pt.1 x8
D-------------------|
A-------------------|
F-------------------|
C-----0h4-5----2~~--|
G-0h2----------2~~--|
D-----------00-0~~--|

Bridge 2 Pt.2 x1
D------------------|
A------------------|
F------------------|
C-----0h4-----0h4--|
G-0h2-----0h2------|
D------------------|

Chorus 2 Pt.1 x1
D-----------------------------------|
A(         P.M          )-----------|
F--------------------------X--------|
C--------------------------X---X-7--|
G-3x16--------3x16---------X-5-X----|
D-------0x16--------0x12-------X----|

Chorus 2 Pt.2 x1
D-------------------------------|
A-------------------------------|
F-------------------------------|
C(            P.M            )--|
G-3x18--2222--------------------|
D------------3333-555555-0x32---|

D----------------------------------------|
A----------------------------------------|
F----------------------------------------|
C(             P.M           )--------7--|
G-3x18--2222--------------------X-5-X----|
D------------3333-555555-0x24------------|

Interlude 1 Pt.1 x1
D----------------------------------------|
A----------------------------------------|
F----------------------------------------|
C--------5---5-5~--7-7~--5---5-5~--7-7~--|
G-7~-7~----7---------------7-------------|
D----------------------------------------|

D--------------------------|
A--------------------------|
F--------------------------|
C-5---5-5~--7-7~--------7--|
G---7-------------X-5-X----|
D--------------------------|

Interlude 1 Pt.2 x1
D----------------------------------------|
A----------------------------------------|
F----------------------------------------|
C--------5---5-5~--7-7~--5---5-5~--7-7~--|
G-7~-7~----7---------------7-------------|
D----------------------------------------|

D----------------------|
A----------------------|
F----------------------|
C-5---5-5~--7-7~-------|
G---7-------------X-5--|
D----------------------|

Outro Pt.1 x8
D-------------------|
A-------------------|
F-------------------|
C-----0h4-5----2~~--|
G-0h2----------2~~--|
D-----------00-0~~--|

Outro Pt.2 x2
D-------------------|
A-------------------|
F-------------------|
C-----0h4------0h4--|
G-0h2------0h2------|
D-------------------|

Song Order:
*Intro 1 Pt.1 x4
*Intro 1 Pt.2 x1
*Intro 1 Pt.1 x2
*Verse 1 Pt.1 x4
*Verse 1 Pt.2 x1
*Verse 1 Pt.1 x6
*Verse 1 Pt.2 x1
*Verse 1 Pt.1 x1
*Verse 1 Pt.2 x1
*Verse 1 Pt.1 x1
*Bridge 1 Pt.1 x8
*Bridge 1 Pt.2 x1
*Chorus 1 Pt.1 x1
*Chorus 1 Pt.2 x1
*Post-Chorus 1 x1
*Verse 2 Pt.1 x4
*Verse 2 Pt.2 x1
*Verse 2 Pt.1 x6
*Verse 2 Pt.2 x1
*Verse 2 Pt.1 x1
*Verse 2 Pt.2 x1
*Verse 2 Pt.1 x1
*Bridge 2 Pt.1 x8
*Bridge 2 Pt.2 x1
*Chorus 2 Pt.1 x1
*Chorus 2 Pt.2 x1
*Interlude 1 Pt.1 x1
*Interlude 1 Pt.2 x1
*Outro Pt.1 x8
*Outro Pt.2 x2

*Here Is A Link If You Wanna Play Along:
http://www.youtube.com/watch?v=kQxvInWJvE0

*Don't Forget To Rate And Comment
If You Liked The Tab, Or If You Have
Any Corrections, I Welcome Corrections.
Tap to rate this tab
# A B C D E F G H I J K L M N O P Q R S T U V W X Y Z