Song name
# A B C D E F G H I J K L M N O P Q R S T U V W X Y Z

Cky - Destination Undefined tab

Intro
------------------------------------|--------------|
--------------------5-0-------------|---------4-0--|
------------3-0-0-0-----------------|-2-0-0-0------|
-4----3---6--------------4----3---6-|--------------|
-4----3---6--------------4----3---6-|--------------|
-2----1---4--------------2----1---4-|--------------|

Intro Riff
---------------------------------|----|
---------------------------------|----|
---------------------------------|----|
-----2-4-2-----------------------|-2--|
---0-------4-2-0-2-4-2-0-2-4-2-0-|-2--|
-2-------------------------------|-0--|

---------------------------------|----|
---------------------------------|----|
---------------------------------|-2--|
-----2-4-2-----------------------|-2--|
---0-------4-2-0-2-4-2-0-2-4-2-0-|-0--|
-2-------------------------------|----|

Verse 1
----------------------------------------------------|
----------------------------------------------------|
----------------------------------------------------|
----------------------------------------------------|
-8-------8-------8----6-6-6-6--6-------6-------6----|
---6-6-6---6-6-6---6-------------4-4-4---4-4-4---4--|

Verse 2
-------------------------------------------------------|
-------------------------------------------------------|
-10-------10-------10----6-6-6-6--8-------8-------8----|
----8-8-8----8-8-8----8-------------6-6-6---6-6-6---6--|
-------------------------------------------------------|
-------------------------------------------------------|

Bridge
--------------------------------------------------------|
--------------------------------------------------------|
--------------------------------------------------------|
--9---9---9--4--4--4--4---5--5---7---7---7--2--2--2--2--|
--9---9---9--4--4--4--4---5--5---7---7---7--2--2--2--2--|
--7---7---7--2--2--2--2---3--3---5---5---5--0--0--0--0--|

Introlude
-----------------------------------------|
-----------------------------------------|
-----------------------------------------|
-------------------6-----------------6-6-|
--4-3---6-4-3---6--x--4-3---6-4---3--4-x-|
------4-------4----4------4-----4------4-|

Solo
-------------------------------------------------------|
-------------------------------------------------------|
-------------------------------------------------------|
---------------------6/8\6------------------------6h8--|
--8p-6-----6h8---------------8--6------------6h8-------|
---------9--------6------------------9-9--9------------|

-----------------------------------|
-----------------------------------|
--6h8-8-6-8^10^8--6----------------|
--------------------8-8-8p6---6----|
----------------------------8---8--|
-----------------------------------|

---------------------------------------------|
---------------------------------------------|
---------------------------------------------|
----------------------6h8--------------------|
--6\4/6---6\4---6h8---------8-8-8--6---4--6--|
---------------------------------------------|

-------------------------------------------------------|
-------------------------------------------------------|
-------------------------5-----------------------------|
----------------6h8--6-------8--8-8p6------------------|
---------6h8-----------------------------8--6-------6--|
--9--6--------------------------------------------9----|

--[THE SOLO STARTS TO FADE ABOUT HERE]--
----------------------------------------|
----------------------------------------|
---------------------8p6----------------|
-----6h8p6---------------8p6-----6----6-|
--9---------9--6-------------9-----9----|

---------------------------------------------------------------|
---------------------------------------------------------------|
--------------6-6-6-------------------------------------8-8-8--|
-------6h8-------------8p6------------------------6h8----------|
--6h8------------------------8p6-----6---6-----6h8-------------|
----------------------------------9----------9-----------------|
Tap to rate this tab
 
# A B C D E F G H I J K L M N O P Q R S T U V W X Y Z