Song name
# A B C D E F G H I J K L M N O P Q R S T U V W X Y Z

Cky - Halfway House tab

Help us improve GuitareTab! Take a short survey!
Halfway House is a hidden track on Volume 1 that starts 19:37 into
on Track 10 (after the rio bravo reprise).


Intro

Guitar 1
Gm                  F
---------------------------------------|
---------------------------------------|
-3-------------------2-----------------|
-5-------------------3-----------------|
-5-------------------3-----------------|
-3-------------------1-----------------|

Bass
Gm                F
---------------------------------------|
---------------------------------------|
-----------3-5-4-3-------1-------------|
-3-----------------1--------1--1-3-2-1-|

Guitar 1 and bass stay the same, play 4x

Guitar 2
Gm                F                    Gm                F
------------------------------------------------------------------------------|
------------------------------------------------------------------------------|
------------------------------------------------------------------------------|
-------3/5-5/8-7-5\3--------------------3/5------/8---7---5\3-----------------|
------------------------------------------------------------------------------|
------------------------------------------------------------------------------|

Gm                F                    Gm                F
------------------------------------------------------------------------------|
------------------------------------------------------------------------------|
------------------------------------------------------------------------------|
----------------------------------------3--------3/5-5/8--7\3-----------------|
------------------------------------------------------------------------------|
------------------------------------------------------------------------------|

Pre-Chorus

Guitar 1

Bbm                  G#
---------------------------------------|
---------------------------------------|
-6-------------------5-----------------|
-8-------------------6-----------------|
-8-------------------6-----------------|
-6-------------------4-----------------|


Bass

Bbm                  G#                Bbm                  G#
------------------------------------------------------------------------------|
------------------------------------------------------------------------------|
------------------------------------------------------------------------------|
-6-------------------4------------------6----------------6--4-----------------|


Guitar 2
Bbm                  G#                Bbm                  G#
------------------------------------------------------------------------------|
---------7-6-----------------11------9----------7-6-----------------11------9-|
-----6-------8--6-------8----8-----8--------6-------8--6-------8----8-----8---|
-8-----8----------8--6----6-------------8-----8----------8--6----6------------|
------------------------------------------------------------------------------|
------------------------------------------------------------------------------|

Verse

Guitar 1

Gm                F                    Gm                F
------------------------------------------------------------------------------|
------------------------------------------------------------------------------|
------------------------------------------------------------------------------|
------------------------------------------------------------------------------|
-5------------5-1--3----------3-1-------5------------5-1--3-------3-1-1/5-----|
-3--3-6-3-6-3------1--------------------3--3-6-3-6-3------1-------------------|

Bass same as Intro

Guitar 2

Gm                F                    Gm                F
------------------------------------------------------------------------------|
------------------------------------------------------------------------------|
-----------------------------------/7-----------------------------------------|
--------------------------------------8---------------------------------------|
------------------------------------------------------------------------------|
------------------------------------------------------------------------------|

Sometimes I get the strangest feelings I want to bust your head
I've got the whole world freaking I'm just the kind of guy
All around the world they've got their hands up screaming

Guitar 2

Gm                     F
-15-15-15--18-17-15-13-11-10-6-8-8/10-6------|
---------------------------------------------|
---------------------------------------------|
---------------------------------------------|
---------------------------------------------|
---------------------------------------------|

Can't the gambles fly no one knows for sure

Pre-Chorus

Guitar 3
Bbm                  G#                Bbm                  G#
----------------------------------------------------11-9-11-11h13p11-9-8------|
-------------------11-------------------11-11h13------------------------------|
---------------------------------------------------------------------------13-|
------------------------------------------------------------------------------|
------------------------------------------------------------------------------|
------------------------------------------------------------------------------|

I've got the portrait hanging around in the picture frame
In the halfway house on life we're not the same

Verse

Time draws a narrow streak I'm just your average freak
I made a deal with life I'm known around the world

Chorus

Guitars 1 & 2
---------------------------------------|
---------------------------------------|
---------------------------------------|
---------------------------------------|
-8----------8----8---4----------4----4-|
-6----------6----6---2----------2----2-|

--------------------------|
--------------------------|
--------------------------|
--------------------------|
-8----------8----8---9----|
-6----------6----6---7----|  x4


I'm not the one with the open wound you're just protection for the righteous kind
I'm not the one with an open wound you're just protection for the righteous kind
righteous kind...

Pre-Chorus

Guitar 3
Bbm                  G#                 Bbm                   G#
-14-14-14-14-14-14-14-13-13-13-13-13-13-14-14-14-14-16-16-14-14-13-13-13-13-|
----------------------------------------------------------------------------|
-11-11-11-11-11-11-11-10-10-10-10-10-10-11-11-11-11-13-13-11-11-10-10-10-10-|
----------------------------------------------------------------------------|
----------------------------------------------------------------------------|
----------------------------------------------------------------------------|
*I couldn't type out the right rhythm for this riff but you know how it sounds

Verse

And of a world of trouble

Guitar 3

-16-----15---|
-------------|
-------------|
-------------|
-------------|
-------------|

I've got the hopeful freed

Made a deal with life

Guitar 3

----------------------|
-15--13---13-11-11-15-|
----------------------|
-12--10---10-8--8--12-|
----------------------|
----------------------|

I know that nothing's real

Guitar 1
Gm                F                    Gm                F
------------------------------------------------------------------------------|
------------------------------------------------------------------------------|
--------------------------------/7--\3----------------------------------------|
------------------------------------------------------------------------------|
-5------------5-1--3-------3-1----------5------------5-1--3-------3-1-1/5-----|
-3--3-6-3-6-3------1--------------------3--3-6-3-6-3------1-------------------|

My cataclystic thoughts the mother of my dreams

Guitar 3

Gm                F
----------------------------------------|
----------------------------------------|
-------------------------7/14-----------|
----------------------------------------|
-------------------------------15\------|
-3--b---/----------1--------------------|
^It's hard to show how to do this, just listen to the song and
  it's in the background

You friend betrayed my smoke screen
I'm wrapped around your screams

Pre-Chorus

There's a portrait hanging around in the picture frame
In the halfway house on life and I'm not the same

Repeat Chorus

End on chord Bb6 (I think)
---
---
---
-5-
-8-
-6-
Related for Halfway House tab