Song name
# A B C D E F G H I J K L M N O P Q R S T U V W X Y Z

Cky - Santas Coming tab

Tuning: DADGBE

Legend

b  - bend
~  - vibrato
pb - prebend
r  - release bend
/\ - slides (self explanatory)
h  - hammer on
p  - pull off
PM - Palm Mute
g  - grace note
ph - pinch harmonic
tr - trill 
=  - tremelo pick
.  - Stoccato

Intro Part 1

|----------------|-------------------|
|----------------|-------------------|
|-6---6--6/8\6---|-6---6/8\6---------|
|---6----------8-|---6-------8-6\4---|
|----------------|-----------------6-|
|----------------|-------------------|
  . . .            . .              

Intro Part 2
|---------------------------------------|
|---------------------------------------|
|----------------6-6--------------------|
|-----6-6--6-6/8----------6-6-6-8\6-----|
|-6/8-----------------6/8-----------9-9-|
|---------------------------------------|

Intro Part 3
|-------------------|------------|-------------------|
|-------------------|------------|-------------------|
|-------------------|---6-6/8\6--|-6---6/8\6---------|
|---6---------------|-6---------8|---6-------8-6\4---|
|-8---4-8-6-9-9-3-4-|------------|-----------------6-|
|-------------------|------------|-------------------|
                      . .          . . 

Chorus 1

You better watch out ...
|---------------------------------------|
|---------------------------------------|
|----------------6-6--------------------|
|-----6-6--6-6/8----------6-6-6-8\6-----|
|-6/8-----------------6/8-----------9-9-|
|---------------------------------------|

Heavy Break Down

'Cos i'm gunna kill you ...
|-----------------------------|------------------------------|
|-----------------------------|------------------------------|
|-----------------------------|------------------------------|
|-----------------------------|------------------------------|
|-----------------------------|--------------------------3ph-|
|-0-0-1-0-1/3-1--0-0-0-0-0-0h1|-0-0-1-0-1/3-1--0-0-0-0-0-----|      
                 |--PM---|                     |--PM---|
 
|-----------------------------|------------------------------|
|-----------------------------|------------------------------|
|-----------------------------|------------------------------|
|-----------------------------|------------------------------|
|-----------------------------|------------------------------|
|-0-0-1-0-1/3-1--0-0-0-0-0-0h1|-0-0-1-0-1/3-1--0-0-0-0-0-0h1-|
                 |--PM---|                     |--PM---|

Chorus 2

He Knows When You Are Sleeping...

|---------------------------|---------------------------------------|
|---------------------------|---------------------------------------|
|-6-8-6-5-6-----6-8-6-5-6---|-8-10-8-7-8--------------8-------------|
|-----------8-8-----------8-|------------10-10--10-11---1111-10-8-6-|
|---------------------------|---------------------------------------|
|---------------------------|---------------------------------------|

Outro

Santa Claus Is Coming..
|----------------| \                   |-------------------|
|----------------|  |                  |-------------------|
|----------------|  |- X 5  Then ...   |-------------------|
|----------------|  |                  |-------------------|
|---6------------|  |                  |---6---------------|
|-8---4-8-6-9--9-| /                   |-8---4-8-6-9-9-3-4-|



Song Order

Intro Part 1
Intro Part 2
Intro Part 3
Intro Part 1
Chorus
Heavy Break Down
Intro Part 1
Chorus 1
Heavy Break Down
Chorus 2
Intro Part 1
Intro Part 2
Intro Part 3
Intro Part 1
Chorus 1
Heavy Break Down
Intro Part 1
Chorus
Heavy Break Down
Chorus 2
Intro Part 1
Intro Part 2
Outro


Tap to rate this tab
# A B C D E F G H I J K L M N O P Q R S T U V W X Y Z