Song name
# A B C D E F G H I J K L M N O P Q R S T U V W X Y Z

Cky - Shippensburg tab

Song:Shippensburg
Album:B-Sides & Rarities 1
Artist:CKY
Genre:Alternative Metal
Year:2011
Tuning:Standard (E,A,D,G,B,E)

Intro x4
E-------------------------------------|
B-------------------------------------|
G-------------------------------------|
D--------------7-5---------------2----|
A-5-5-7-8---------------5----3-3---3--|
E----------6-6------3-3---3-----------|

Verse 1 Pt.1 x4
E---------|
B---------|
G-77------|
D-77--55--|
A-55--55--|
E-----33--|

Verse 1 Pt.2 x1
E-------------------|
B(  x4  )-----------|
G-77----------------|
D-77--55-------2----|
A-55--55---3-3---3--|
E-----33------------|

Interlude 1 x2
E---------------|
B---------------|
G---------------|
D-3~~~~--5~~~~--|
A-3~~~~--5~~~~--|
E-1~~~~--3~~~~--|

Pre-Chorus 1 x2
E--------------|
B--------------|
G--------------|
D-3------5-----|
A-3x16---5x16--|
E-1------3-----|

Interlude 2 Pt.1 x2
E-------------------------------------|
B-------------------------------------|
G-------------------------------------|
D--------------7-5---------------2----|
A-5-5-7-8---------------5----3-3---3--|
E----------6-6------3-3---3-----------|

Interlude 2 Pt.2 x2
E-----------------|
B-----------------|
G-77----------55--|
D-77--88--55--55--|
A-55--88--55--33--|
E-----66--33------|

Verse 2 x4
E-------------------------------------|
B-------------------------------------|
G-------------------------------------|
D--------------7-5---------------2----|
A-5-5-7-8---------------5----3-3---3--|
E----------6-6------3-3---3-----------|

Pre-Chorus 2 x2
E--------------|
B--------------|
G--------------|
D-3------5-----|
A-3x16---5x16--|
E-1------3-----|

Chorus 1 x1
E-----------------------------|
B-----------------------------|
G------7-7--5~~--5--7-3-------|
D-8-8--7-7--5~~--5--7-3--5-3--|
A-8-8--5-5--3~~--3--5-1--5-3--|
E-6-6--------------------3-1--|

E--------------------------------------------------------|
B--------------------------------------------------------|
G------------------------------------7-7-5--5-7-5-3------|
D-------(      x3    )--------8~~--8-7-7-5--5-7-5-3-5-3--|
A--------XXXX-----------XXXX--8~~--8-5-5-3--3-5-3-1-5-3--|
E-3-1-3--XXXX-1-3-1-3---XXXX--6~~--6----------------3-1--|

E--------------------------------------|
B--------------------------------------|
G--------7-7---------------------------|
D-8~~--8-7-7------(     x3     )-------|
A-8~~--8-5-5-------XXXX----------XXXX--|
E-6~~--6-----3-1-3-XXXX-1-3-1-3--XXXX--|

Bridge 1 Pt.1 x1
E------------------------
B(     Palm Muted     )--
G-----5555-7777----------|
D-555-5555-7777-8888-5---|
A-555-3333-5555-8888-5---|
E-333-----------6666-3---|

Bridge 1 Pt.2 x2
E------------------------
B(     Palm Muted     )--
G-----5555-7777----------|
D-555-5555-7777-8888-5---|
A-555-3333-5555-8888-5---|
E-333-----------6666-3---|

Bridge 1 Pt.3 x4
E--------------|
B--------------|
G-77-------55--|
D-77-88-55-55--|
A-55-88-55-33--|
E----66-33-----|

Verse 3 x4
E-------------------------------------|
B-------------------------------------|
G-------------------------------------|
D--------------7-5---------------2----|
A-5-5-7-8---------------5----3-3---3--|
E----------6-6------3-3---3-----------|

Outro x1
E-----------------------------|
B-----------------------------|
G------7-7--5~~--5--7-3-------|
D-8-8--7-7--5~~--5--7-3--5-3--|
A-8-8--5-5--3~~--3--5-1--5-3--|
E-6-6--------------------3-1--|

E--------------------------------------------------------|
B--------------------------------------------------------|
G------------------------------------7-7-5--5-7-5-3------|
D-------(      x3    )--------8~~--8-7-7-5--5-7-5-3-5-3--|
A--------XXXX-----------XXXX--8~~--8-5-5-3--3-5-3-1-5-3--|
E-3-1-3--XXXX-1-3-1-3---XXXX--6~~--6----------------3-1--|

E-------------------|
B-------------------|
G--------7-7--------|
D-8~~--8-7-7--------|
A-8~~--8-5-5--------|
E-6~~--6-----3-1-3--|

Outro Pt.2 x1
E-----------------------------|
B-----------------------------|
G-----------------------------|
D(     x2     )---------------|
A-XXXX-----------X-X----------|
E-XXXX-1-3-1-3---X-X-1-3-1-3--|

E----------------|
B----------------|
G----------------|
D(     x2     )--|
A-XXXX-1-3-1-3---|
E-XXXX-----------|

E---------------------------------------|
B---------------------------------------|
G---------------------------------------|
D---------------------------------------|
A-XXXX-8-10-8-10--XXXX-8-10-8-10~~-10\--|
E-XXXX------------XXXX------------------|

Song Order:
*Intro x4
*Verse 1 Pt.1 x4
*Verse 1 Pt.2 x1
*Interlude 1 x2
*Pre-Chorus 1 x2
*Interlude 2 Pt.1 x2
*Interlude 2 Pt.2 x2
*Verse 2 x4
*Pre-Chorus 2 x2
*Chorus 1 x1
*Bridge 1 Pt.1 x1
*Bridge 1 Pt.2 x2
*Bridge 1 Pt.3 x4
*Verse 3 x4
*Outro Pt.1 x1
*Outro Pt.2 x1

Key:
\=Slide Down
~=Let Ring
X=Mute The Strings

*Here Is A Link If You Wanna Play Along:
http://www.youtube.com/watch?v=Q4Y_xec0MN4

*Don't Forget To Rate And Comment If You
Liked The Tab, And Comment Any Corrections,
I Welcome Corrections.
Tap to rate this tab
# A B C D E F G H I J K L M N O P Q R S T U V W X Y Z