Song name
# A B C D E F G H I J K L M N O P Q R S T U V W X Y Z

Cky - Sporadic Movement tab

Help us improve GuitareTab! Take a short survey!
-|--------|-----------------------|-------------------------------------------
-|--------|-----------------------|-------------------------------------------
-|--------|---9-----8-----9-----8-|---------9-9-7-5-4-------------------------
-|--------|-7---7-7---7-7---7-7---|-------------------5-7-5-------------------
-|--------|-----------------------|-------------------------------------------
-|-5-8-5-3|-----------------------|-5-8-5-3-----------------------------------
                                            

Guitar 1 - [strumming not shown]
FILL - play this chord   PRE-CHORUS - play all these palm muted 
-|----------------------|-----------------------------------------------------
-|----------------------|-----------------------------------------------------
-|----------------------|-----------------------------------------------------
-|--3-------------------|--3---5----------------------------------------------
-|--3-------------------|--3---5----------------------------------------------
-|--1-------------------|--1---3----------------------------------------------
   pm.. @ 0:20 and 1:18    @ 0:29 and 1:28                                    


Guitar 2 - [strumming not shown]
FILL - play this chord   PRE-CHORUS - play all these palm muted 
-|----------------------|-----------------------------------------------------
-|----------------------|-----------------------------------------------------
-|----------------------|--8--10----------------------------------------------
-|--8-------------------|--8--10----------------------------------------------
-|--8-------------------|--6---8----------------------------------------------
-|--6-------------------|-----------------------------------------------------
   pm.. @ 0:20 and 1:18    @ 0:29 and 1:28                                    


CHORUS - something like this "a chemical in the brain..."
-|----------------------------------------------------------------------------
-|----------------------------------------------------------------------------
-|----------------------------------------------------------------------------
-|----------------------------------------------------------------------------
-|------8888------8888-------7777-------5--3----------------------------------
-|-5555------5555-------3333-------1111---------------------------------------
               
BRIDGE - live:                BRIDGE - CD version moogs:
-|---------------------------|-----------------------------------------------------
-|---------------------------|-----------------------------------------------------
-|-------9-7---------7-12----|-----9-----------7-12--------------------------------
-|---7---9-7---5-7---7-12----|-7\--9-7---5-7---7-12--------------------------------
-|---7---7-5---5-7---5-10----|-7\--7-7---5-7---5-10--------------------------------
-|---5---------3-5-----------|-5\----5---3-5---------------------------------------
                                
"i am sporadic movement"
-|---
-|---
-|---
-|-7-
-|-7-
-|-5-ringggggg

"you are sporadic"
-|---
-|---
-|---
-|-5-
-|-5-
-|-3-
Related for Sporadic Movement tab