Song name
# A B C D E F G H I J K L M N O P Q R S T U V W X Y Z

Cky - Genesis 12a tab

Author/Artist: CKY
Title: Genesis 12a
Album: Volume 2
Transcribed by:John Hobbs
Email: SloppyJoe4u840@hotmail.com
Tuning: Standard



INTRO
----------------------------------------------------------------------
----------------------------------------------------------------------
----------------------------------------------------------------------
----------5---------5---------3---------3-----------------------------
------7b--------7b--------5b--------5b--------------------------------
-5-5-------5-5-------3-3-------3-3------------------------------------
                                                                              
VERSE (PALM MUTE ALL)
----------------------------------------------------------------------
----------------------------------------------------------------------
----------------------------------------------------------------------
----------7----5--------3---2-----------------------------------------
-----------------3----3---------------------X2--and then----3-2-------
-5-5-3-5----5------5------5-----5--3--5-------------------------3-----
                                                                              
INTERLUDE (TREMOLO PICKING)
----------------------------------------------------------------------
----------------------------------------------------------------------
----------------------------------------------------------------------
----------------------------------------------------------------------
---------3--3-5-----3-3-3-5---------3--3-5-----3-3-3-5--x2------------
-5-5-5-5--------5-5---------3-3-3-3--------3-3------------------------
Tap to rate this tab
 
# A B C D E F G H I J K L M N O P Q R S T U V W X Y Z