Song name
# A B C D E F G H I J K L M N O P Q R S T U V W X Y Z

Cky - Eat My Fuck tab

CKY
Song:Eat My Fuck
off of the CKY4 video
Stardard Tuning

e|------------------------------------------------------|
B|------------------------------------------------------|
G|------------------------------------------------------|
D|------------------------------------------------------|
A|-----5-4-----5-7-----5-4-------------5-4-----5-7------|
E|-0-0-3-2-0-0-3-5-0-0-3-2-0-0-3-2-0-0-3-2-0-0-3-5-0-0--|


e|--------------------|
B|--------------------|
G|--------------------|
D|---6----5----4----3-|
A|---5----4----3----2-|
E|-5----4----3----2---|

verse
e|------------------------------------------------------|
B|------------------------------------------------------|
G|------------------------------------------------------|
D|------------------------------------------------------|
A|-----5-4-----5-7-----5-4-------------5-4-----5-7------|
E|-0-0-3-2-0-0-3-5-0-0-3-2-0-0-3-2-0-0-3-2-0-0-3-5-0-0--|

e|--------------------|
B|--------------------|
G|--------------------|
D|---6----5----4----3-|
A|---5----4----3----2-|
E|-5----4----3----2---|

enjoy
Tap to rate this tab
 
# A B C D E F G H I J K L M N O P Q R S T U V W X Y Z