Song name
# A B C D E F G H I J K L M N O P Q R S T U V W X Y Z

Cky - Step To Cky tab

main riff
-|-------------------------------------------------|
-|-------------------------------------------------|
-|-------------------------------------------------|
-|----------2---1----------------------------------|
-|-1--4--1----1----4--1-0---------0-1-3-4----------|
-|--------------------------1-2-1------------------|
                                                                

variation of main riff
-|---------------------------------------------|
-|---------------------------------------------|
-|---------------------------------------------|
-|--------2---1--------------------------------|
-|1--4--1---1----4--1---0---------0------------|
-|---------------------------1--------1--------|
        
                                                          
bridge
-|------------------------------------------|
-|------------------------------------------|
-|------------------------------------------|
-|------------------------------------------|
-|------------------------------------------|
-|--4-4--44--4-4--44--4-4--44--4-4--44------|
Tap to rate this tab
# A B C D E F G H I J K L M N O P Q R S T U V W X Y Z