Song name
# A B C D E F G H I J K L M N O P Q R S T U V W X Y Z

Cky - Dropped tab

Author/Artist: OIL/CKy
Title: Dropped
Album: volume 2
Transcribed by: colin kemege
Email: socksandspoons@hotmail.com
Tuning: 1 1/2 steps down

RIFF -  Intro and verses [palm-muted verses]
-|----------------------------------------------------------------------------|
-|----------------------------------------------------------------------------|
-|----------------------------------------------------------------------------|
-|----------------------------------------------------------------------------|
-|----------------------------------------------------------------------------|
-|-0-3-0-3-0-3-0-3-0-3-0-3-0-3-0----------------------------------------------|

Chorus
-|--------------------|
-|--------------------|
-|--------------------|
-|-4-4--2--2--2--2----|
-|-4-4--2--2--2--2----|
-|-2-2--0--0--0--0----|
 pm     .     .

Bridge
-|----------------------------------------------------------------------------|
-|----------------------------------------------------------------------------|
-|----------------------------------------------------------------------------|
-|----------------------------------------------------------------------------|
-|--2-2-2-2-4--2-2-2-2-4--2-2-4-----------------------------------------------|
-|----------------------------------------------------------------------------|

S O N G  L A Y O U T :

RIFF X1
RIFF X6
RIFF X4
RIFF X2
CHORUS X8
RIFF X4
RIFF X6
BRIDGE X8
BRIDGE X4
CHORUS X8
RIFF X4
Tap to rate this tab
# A B C D E F G H I J K L M N O P Q R S T U V W X Y Z