Song name
# A B C D E F G H I J K L M N O P Q R S T U V W X Y Z

Cky - All Power To Slaves tab

Well, yeah. This is the tab for the solo to All Power To Slaves by CKY. Great song. From 
album An Answer Can Be Found.
Standard tuning.
/= Slide.
~= Bend.

e---14---14---14~-|
B-7/--------------|
G-----------------|
D-----------------|
A-----------------|
E-----------------|

Play this part with tremolo tapping:

e-21-14-17-21-14-17----|
B----------------------|
G----------------------|
D----------------------|
A----------------------|
E----------------------|

Then this:

e-------------------------------|
B-14~--------/17--14--/17--14---|
G---------------16--14---16--14-|
D-------------------------------|
A-------------------------------|
E-------------------------------|

Then play this part with tremolo picking:

e-14-16-14-16-17-16-17-21~-|
B--------------------------|
G--------------------------|
D--------------------------|
A--------------------------|
E--------------------------|

And that's it. Enjoy and please rate.
Tap to rate this tab
# A B C D E F G H I J K L M N O P Q R S T U V W X Y Z