Song name
# A B C D E F G H I J K L M N O P Q R S T U V W X Y Z

Cky - Dont Hold Your Breath tab

Cky-Dont Hold Your Breath
Track 11- An Answer Can Be Found

                           / slide
Intro/Verse-Clean Guitar  *  notes let ring

d-------------------------------------------------|
a-------------------------------------------------|
f-------------------------------------------------|
c------------------------------------2-2-2-2-0-2--|
g---3----7-5-3-5-5-5-----3-2-2-2-3-2-------------3|
d-5--5-5*------------5---------------------------5|


Chorus

d-------------------------------------------------|
a-------------------------------------------------|
f-------------------------------------------------|
c-10----7----10----7---3--5-5-5-5-6-6-6-6-7-7-----|
g-10----7----10----7---3--5-5-5-5-6-6-6-6-7-7-----|
d-8-----5----8-----5---1--3-3-3-3-4-4-4-4-5-5-----|

Pre-Verse

d-----3-0------7--------3-0-|
a----------------8--3/5-----|
f---------------------------|
c---------------------------|
g-3-3-----5-5---------------|
d---------------------------|


Solo

d----------------------------------------|
a----------------------------------------|
f----------------------------------------|
c-7-9-10-12-14/12-10-10-9-5-5-10-9-5-5/7-|
g----------------------------------------|
d----------------------------------------|

d----------------15b17r15-13-12-13-15---|
a-7h8-10----8---------------------------|
f--------9----7-------------------------|
c---------------------------------------|
g---------------------------------------|
d---------------------------------------|

end with the chorus and feed back (comments would be nice)
Tap to rate this tab
# A B C D E F G H I J K L M N O P Q R S T U V W X Y Z