Song name
# A B C D E F G H I J K L M N O P Q R S T U V W X Y Z

Cky - Mustard Man tab

Help us improve GuitareTab! Take a short survey!
/----------------------------------------/
/----------------------------------------/
/----------------------------------------/ 
/--------8---8---------------------------/
/------7-------7-------------------------/
/----8-----------8-8b--------------------/
                                                   X16
/----------------------------------------/
/----------------------------------------/
/--------------------16h17h16h17---------/
/----------13----------------------------/ 
/-------12----12-------------------------/
/-----13--------13-----------------------/


Related for Mustard Man tab