Song name
# A B C D E F G H I J K L M N O P Q R S T U V W X Y Z

Cky - An Answer Can Be Found tab

Help us improve GuitareTab! Take a short survey!
I noticed that there were no tabs for the full album so i made this.  plz rate or comment.


Suddenly Tragic

d|---------------------------------------------------------|
a|---------------------------------------------------------|
f|----------1---------------------------1------------------|
c|-2---------2-4-2--2-----1--4-2----------2-4-2---2-4/6-6-6|
g|--4-2-4-4-------0---0-2---2---4-2-4-4---------0----------|
D|---------------------------------------------------------|

d|---------------------------------------------------|
a|---------------------------------------------------|
d|---------------------------------------------------|
c|-------------------------2---------------4-2-------|
g|-6-x-4-x-2-4-6-4---2-4-6---4-2-4-4-4-4-4-----4-2-4-|
D|-----------------4---------------------------------|

d|---------------------------------------------------------|
a|---------------------------------------------------------|
f|----------1---------------------------1------------------|
c|-2---------2-4-2--2-----1--4-2----------2-4-2---2-4/6-6-6|
g|--4-2-4-4-------0---0-2---2---4-2-4-4---------0----------|
D|---------------------------------------------------------|


d|---------------------------------------------------|
a|---------------------------------------------------|
d|---------------------------------------------------|
c|-------------------------2---------------4-2-------|
g|-6-x-4-x-2-4-6-4---2-4-6---4-2-4-4-4-4-4-----4-2-4-|
D|-----------------4---------------------------------|

d|---------------------------------------------|
a|---------------------------------------------|
d|---------------------------------------------|
c|---------------------------------------------|
g|--------------------------------444444444444-|
D|0-0-0-0-0-0-0-0-0-0-0-0-0-0-0-0--------------|


d|-----------------------------------------|
a|-----------------------------------------|
d|-----------------------------------------|
c|------6-7-6-7---6-7-6-4------------------|
g|-4-4-------------------------------------|
D|-------------4-4---------4-2-2-2-4-2-2-2-|



The Way you lived


D|---------------------------------|
A|-7--7----------------------------|
F|-4--4----------------------------|
C|------------------6-/-7------7-7-|
G|------------2-5---4-/-5----7-----|
D|--------2-5----------------------|

D|------------------------------------------------|
A|------------------------------------------------|
F|------------------------------------------------|
C|------------------------------------------------|
G|-5-5-5--5-5-7-7--7--5------------/9--7--5-------|
D|-3-3-3--3-3-5-5--------9--5--7------------------|


D|---------------------------------------------------------------------------|
A|---------------------------------------------------------------------------|
F|------------------------------------------------6--------------------------|
C|---------------------------4--------------7---------7----------------------|
G|---4----7--4-----4-----5------5---5-------------------------------/9--7--5-|
D|-5---5--------5------3---3------3------5-----5----------5---7/-------------|

D|---------------------------------------------------|
A|---------------------------------------------------|
F|---------------------------------------------------|
C|---------------------------------------4p0---2p0---|
G|---------------------------------------------------|
D|--5--7---7-7-7---5---2--2--3---3-3-2---------------|

D|--------------------------------------------------------------------------|
A|--------------------------------------------------------------------------|
F|----------------2-------------------------------------2-------------------|
C|-------4-----------------4--------4----------4------------------4p0---2p0-|
G|-0--2-----2--5-----0--2-----2--5-------0--2-----2--5------0--2------------|
D|--------------------------------------------------------------------------|




Dressed in Decay

|-----------------------------------------|
|-----------------------------------------|
|---------1----4---4-6---------1----2---4-|
|------4----------------------4-----------|
|-2-2-------2---2-------4-4------4----4---|
|-----------------------------------------|

|---------------------------------------|
|---------------------------------------|
|---------------------------------------|
|--------4----6----9----8---------------|
|------6--------------------9---11----9-|
|-4-4------4----4----7----7---7-----7---|

|-------------------------------------------------|
|------------------------------------------5----4-|
|----------4------6-----6-8----------4------------|
|-------6--------------------------6-----4---4----|
|-------------------------------------------------|
|-0-0---------0-----0--------0-0------------------|


Familiar Realm

Intro
|-----------------------|
|-----------------------|
|-----------------------|
|-----------------------|
|---0-2---2-5-2-0-5-0---|
|------5-0--------------|
Verse Riff 1
|--------------------------------------|
|--------------------------------------|
|--------------------------------------|
|--------------------------------------|
|------------------0-2---2-5-2-0-5-0---|
|---00000000000000----5-0--------------|


Verse Riff 2
|-------------------------------------------|
|-------------------------------------------|
|-------------------------------------------|
|----------------------------------55--77---|
|-------------------------------------------|
|---00000000000022222222244455555-5---5-----|

Chorus Riff 1
|------------------------------------------|
|------------------------------------------|
|------------------------------------------|
|-------------0-0h2----2-0-----0-2-0-2h4---|
|------5-2-2-4-4----000-0-0-0h2------------|
|---555-5-5--------------------------------|

Chorus Riff 2
|------------------|-------------------|
|------------------|-------------------|
|------------------|-------------------|
|--------2h4-2-0-2-|0--0-------2h4-0---|
|------------------|-22-222-0-2--------|
|---000------------|-------------------|

All power to slaves

Opening/Main Riff
d-------------------------------------|
a-------------------------------------|
f---------------------------4-3-------|
c-------------6---------4-6-----4---4-|
g----6--4-2-----------------------6---|
D--4--------4----4--2-----------------|

d------------------------------------------|
a------------------------------------------|
f-------------------------4-3-----6-----8--|
c-------------6--------4-6-----4-4---4-4---|
g----6--4-2--------------------------------|
D--4--------4----4--2----------------------|

d-------------------------------------|
a-------------------------------------|
f---------------------------4-3-------|
c-------------6---------4-6-----4---4-|
g----6--4-2-----------------------6---|
D--4--------4----4--2-----------------|

d------------------------------------------|
a------------------------------------------|
f-------------------------4-3-----6-----8--|
c-------------6--------4-6-----4-4---4-4---|
g----6--4-2--------------------------------|
D--4--------4----4--2----------------------|

Riff "B"
d-------------------------------------------|
a-------------------------------------------|
f-------11h-13-11-------15-13-11-13-11---11-|
c-9-9-9-----------11-13----------------13---|
g-------------------------------------------|
D-------------------------------------------|

d---------------------------------------------|
a---------------------------------------------|
f----------11h-13-11------15-13-11-13-11---11-|
c-11-11-11-----------11-13---------------13---|
g---------------------------------------------|
D---------------------------------------------|

d-------------------------------------------|
a-------------------------------------------|
f-------11h-13-11-------15-13-11-13-11---11-|
c-9-9-9-----------11-13----------------13---|
g-------------------------------------------|
D-------------------------------------------|

d---------------------------------------------|
a---------------------------------------------|
f----------11h-13-11------15-13-11-13-11---11-|
c-11-11-11-----------11-13---------------13---|
g---------------------------------------------|
D---------------------------------------------|

Main Riff
d-------------------------------------|
a-------------------------------------|
f---------------------------4-3-------|
c-------------6---------4-6-----4---4-|
g----6--4-2-----------------------6---|
D--4--------4----4--2-----------------|

d------------------------------------------|
a------------------------------------------|
f-------------------------4-3-----6-----8--|  *Repeat Main Riff 2X
c-------------6--------4-6-----4-4---4-4---|
g----6--4-2--------------------------------|
D--4--------4----4--2----------------------|

d-------------------------------------------|
a-------------------------------------------|
f-------11h-13-11-------15-13-11-13-11---11-|
c-9-9-9-----------11-13----------------13---|
g-------------------------------------------|
D-------------------------------------------|

d---------------------------------------------|
a---------------------------------------------|
f----------11h-13-11------15-13-11-13-11---11-|
c-11-11-11-----------11-13---------------13---|
g---------------------------------------------|
D---------------------------------------------|

d-------------------------------------------|
a-------------------------------------------|
f-------11h-13-11-------15-13-11-13-11---11-|
c-9-9-9-----------11-13----------------13---|
g-------------------------------------------|
D-------------------------------------------|

d---------------------------------------------|
a---------------------------------------------|
f----------11h-13-11------15-13-11-13-11---11-|
c-11-11-11-----------11-13---------------13---|
g---------------------------------------------|
D---------------------------------------------|


d----------------------------------------------------|
a----------------------------------------------------|
f----------------------------------------------------|
c----------------------------------------------------|   Repeat 4 more times
g-4-4-4-4-6-6-9-0--6-4-2-4-2-------------------------|
d----------------------------4-2-2-4-0-0-0-0-0-0-0-0-|

Main Riff and Riff "B"


Chad Guitar Solo
d---4~---14b16r14~--|
a-0~----------------|
f-------------------|
c-------------------|
g-------------------|
D-------------------|


d--12/14----11----12/14----11----|
a--------14~---12~------14~---12-|
f--------------------------------|
c--------------------------------|
g--------------------------------|
D--------------------------------|



Tripled manic state


||--------------------|------------------|
||o-------------------|------------------|
||------11---9-----11-|-------11-------9-|
||--------------------|------------------|
||o-------------------|------------------|
||--9-9----9---9-9----|-0-0-0----0-0-0---|
|
|   Gtr II
|   W                   W
||--------------------|------------------|
||o-------------------|------------------|
||--------------------|------------------|
||--------------------|------------------|
||o-------------------|------------------|
||--------------------|------------------|


  PM|    PM  PM|      PM
  E E  E E E E E  E   E  E E  E E E E  E
|-------------------|---------------------||
|-------------------|--------------------o||
|-----11---9-----11-|-----------8-9-------||
|-------------------|------9-11-----9-11--||
|-------------------|---11---------------o||
|-9-9----9---9-9----|-9-------------------||
|
| W                   E  E E  E E E E  E
|-------------------|---------------------||
|-------------------|--------------------o||
|-------------------|---------------------||
|-------------------|-----------6-7-------||
|-------------------|------7--9-----7--9-o||
|-------------------|----9----------------||


    C#5         A5   B5                      A#5  A5       G#5
     PM----------------------------------------------------|
     q   q   q  q    q  q  q  E E   q  q  q  q    q  q  q  q
||-----------------|--------------|-------------|--------------||
||o----------------|--------------|-------------|-------------o||
||-----------------|--------------|-------------|--------------||
||-----------------|--------------|-------------|--------------||
||o-11--11--11--7--|-9--9--9--x-x-|-9--9--9--8--|-7--7--7--6--o||
||---9---9---9--5--|-7--7--7--x-x-|-7--7--7--6--|-5--5--5--4---||


    N.C.
    PM|    PM  PM|      PM--|    PM--|
    E E  E E E E E  E   E E E  E E E E E
||--------------------|------------------|
||o-------------------|------------------|
||------11---9-----11-|-------11-------9-|
||--------------------|------------------|
||o-------------------|------------------|
||--9-9----9---9-9----|-0-0-0----0-0-0---|
|
|   Gtr II
|   W                   W
||--------------------|------------------|
||o-------------------|------------------|
||--------------------|------------------|
||--------------------|------------------|
||o-------------------|------------------|
||--------------------|------------------|


  PM|    PM  PM|      PM
  E E  E E E E E  E   E  E E  E E E E  E
|-------------------|---------------------||
|-------------------|--------------------o||
|-----11---9-----11-|-----------8-9-------||
|-------------------|------9-11-----9-11--||
|-------------------|---11---------------o||
|-9-9----9---9-9----|-9-------------------||
|
| W                   E  E E  E E E E  E
|-------------------|---------------------||
|-------------------|--------------------o||
|-------------------|---------------------||
|-------------------|-----------6-7-------||
|-------------------|------7--9-----7--9-o||
|-------------------|----9----------------||


   Pre-Verse
    $
    C#5      N.C.                    B5
     H    Q  E  E    E E  E  E  E  E Q
||----------------|---------------------|
||o---------------|---------------------|
||----------------|---------------------|
||----------------|-11------11----11----|
||o-11---------11-|----9-11----11----9--|
||---9-------9----|------------------7--|
|
|    H    Q  E  E    E E  E  E  E  E Q
||----------------|---------------------|
||o---------------|--9------------------|
||----------------|---------11----11----|
||----------------|----9-11----11-------|
||o-11---------11-|------------------9--|
||---9-------9----|------------------7--|


  C#5      N.C.                    B5
   H    Q  E  E    E E  E  E  E  E Q
|---------------|----------------------||
|---------------|---------------------o||
|---------------|----------------------||
|---------------|-11------11----11-----||
|-11---------11-|----9-11----11----9--o||
|--9-------9----|------------------7---||
|
|  H    Q  E  E    E E  E  E  E  E Q
|---------------|----------------------||
|---------------|--9------------------o||
|---------------|---------11----11-----||
|---------------|----9-11----11--------||
|-11---------11-|------------------9--o||
|--9-------9----|------------------7---||


   Verse
    C#5      N.C.
     H    Q  E  E    E E  E  E  E  E  E E
||----------------|-----------------------|
||o---------------|-----------------------|
||----------------|-----------------------|
||----------------|-11------11----11-11-9-|
||o-11---------11-|----9-11----11---------|
||---9-------9----|-----------------------|
|
|    H    Q  E  E    E E  E  E  E  E  E E
||----------------|-----------------------|
||o---------------|--9--------------------|
||----------------|---------11----11-11-9-|
||----------------|----9-11----11---------|
||o-11---------11-|-----------------------|
||---9-------9----|-----------------------|


  F#5      N.C.
   H    Q  E  E    E E  E  E E  E  Q   4x
|---------------|----------------------||
|---------------|---------------------o||
|---------------|-11------11-------9---||
|-11---------11-|----9-11----9-11------||
|--9-------9----|---------------------o||
|---------------|----------------------||
|
|  H    Q  E  E    E E  E  E E  E  Q   4x
|---------------|--9-------------------||
|---------------|---------12------12--o||
|---------------|----------------------||
|-11---------11-|----9-11----9-11------||
|--9-------9----|---------------------o||
|---------------|----------------------||


   Pre-Chorus
    N.C.
    PM|    PM  PM|      PM--|    PM--|
    E E  E E E E E  E   E E E  E E E E E
||--------------------|------------------|
||o-------------------|------------------|
||------11---9-----11-|-------11-------9-|
||--------------------|------------------|
||o-------------------|------------------|
||--9-9----9---9-9----|-0-0-0----0-0-0---|
|
|   W                   W
||--------------------|------------------|
||o-------------------|------------------|
||--------------------|------------------|
||--------------------|------------------|
||o-------------------|------------------|
||--------------------|------------------|


  PM|    PM  PM|      PM
  E E  E E E E E  E   E  E E  E E E E  E
|-------------------|---------------------||
|-------------------|--------------------o||
|-----11---9-----11-|-----------8-9-------||
|-------------------|------9-11-----9-11--||
|-------------------|---11---------------o||
|-9-9----9---9-9----|-9-------------------||
|
| W                   E  E E  E E E E  E
|-------------------|---------------------||
|-------------------|--------------------o||
|-------------------|---------------------||
|-------------------|-----------6-7-------||
|-------------------|------7--9-----7--9-o||
|-------------------|----9----------------||


   Chorus
                                                         D.S.
    C#5         A5   B5                      A#5  A5       G#5
     PM----------------------------------------------------|
     q   q   q  q    q  q  q  E E   q  q  q  q    q  q  q  q   4x
||-----------------|--------------|-------------|--------------||
||o----------------|--------------|-------------|-------------o||
||-----------------|--------------|-------------|--------------||
||-----------------|--------------|-------------|--------------||
||o-11--11--11--7--|-9--9--9--x-x-|-9--9--9--8--|-7--7--7--6--o||
||---9---9---9--5--|-7--7--7--x-x-|-7--7--7--6--|-5--5--5--4---||


    N.C.
    PM|    PM  PM|      PM--|    PM--|
    E E  E E E E E  E   E E E  E E E E E
||--------------------|------------------|
||o-------------------|------------------|
||------11---9-----11-|-------11-------9-|
||--------------------|------------------|
||o-------------------|------------------|
||--9-9----9---9-9----|-0-0-0----0-0-0---|
|
|   Gtr II
|   W                   W
||--------------------|------------------|
||o-------------------|------------------|
||--------------------|------------------|
||--------------------|------------------|
||o-------------------|------------------|
||--------------------|------------------|


  PM|    PM  PM|      PM
  E E  E E E E E  E   E  E E  E E E E  E  4x
|-------------------|---------------------||
|-------------------|--------------------o||
|-----11---9-----11-|-----------8-9-------||
|-------------------|------9-11-----9-11--||
|-------------------|---11---------------o||
|-9-9----9---9-9----|-9-------------------||
|
| W                   E  E E  E E E E  E  4x
|-------------------|---------------------||
|-------------------|--------------------o||
|-------------------|---------------------||
|-------------------|-----------6-7-------||
|-------------------|------7--9-----7--9-o||
|-------------------|----9----------------||


 Guitar Solo
  C#5        N.C.
  Gtr III
   H      q  Q       Q    H           Q
|-----------------|-----------------------|
|-----------------|-----------------------|
|-----------------|-----------------------|
|-----------------|-------9----------11---|
|--7----/11--9----|--9--------------------|
|-----------------|-----------------------|
|
| Gtr I
|  H      Q  E  E    E E  E  E  E  E  E E
|-----------------|-----------------------|
|-----------------|-----------------------|
|-----------------|-----------------------|
|-----------------|-11------11----11-11-9-|
|-11-----------11-|----9-11----11---------|
|--9---------9----|-----------------------|
|
| Gtr II
|  H      Q  E  E    E E  E  E  E  E  E E
|-----------------|-----------------------|
|-----------------|--9--------------------|
|-----------------|---------11----11-11-9-|
|-----------------|----9-11----11---------|
|-11-----------11-|-----------------------|
|--9---------9----|-----------------------|


  F#5        N.C.
   +H     Q  +E      E   +Q     H.
|----------------------|------------------------|
|----------------------|------------------------|
|---------9--(9)b11--9-|-(9)--------------------|
|-(11)-----------------|-------11---------------|
|----------------------|------------------------|
|----------------------|------------------------|
|
|   H     Q   E      E    E  E  E   E E  E  Q
|----------------------|------------------------|
|----------------------|------------------------|
|----------------------|-11--------11-------9---|
|--11---------------11-|-----9-11-----9-11------|
|---9---------9--------|------------------------|
|----------------------|------------------------|
|
|   H     Q   E      E    E  E  E   E E  E  Q
|----------------------|--9---------------------|
|----------------------|-----------12------12---|
|----------------------|------------------------|
|--11---------------11-|-----9-11-----9-11------|
|---9---------9--------|------------------------|
|----------------------|------------------------|


  C#5                                 N.C.
   S  S  S  S  S  S  S  S  S  S  S  S  S  S  S  S
|-------------------------------------------------|
|-------14p12-------14p12-------14p12-------14p12-|
|-12h13-------12h13-------12h13-------12h13-------|
|-------------------------------------------------|
|-------------------------------------------------|
|-------------------------------------------------|
|
|  H                       Q           E     E
|-------------------------------------------------|
|-------------------------------------------------|
|-------------------------------------------------|
|-------------------------------------------------|
|-11----------------------------------------11----|
|--9-----------------------------------9----------|
|
|  H                       Q           E     E
|-------------------------------------------------|
|-------------------------------------------------|
|-------------------------------------------------|
|-------------------------------------------------|
|-11----------------------------------------11----|
|--9-----------------------------------9----------|


   S  S  S  S  S  S  S  S  S  S  S  S  S  S  S  S
|--------------------------------------------------|
|-------14p12-------14p12-------14p12-------14p12--|
|-12h13-------12h13-------12h13-------12h13--------|
|--------------------------------------------------|
|--------------------------------------------------|
|--------------------------------------------------|
|
|  E     E     E     E     E     E     E     E
|--------------------------------------------------|
|--------------------------------------------------|
|--------------------------------------------------|
|-11----------------11----------11----11-----9-----|
|--------9----11----------11-----------------------|
|--------------------------------------------------|
|
|  E     E     E     E     E     E     E     E
|--------------------------------------------------|
|--9-----------------------------------------------|
|-------------------11----------11----11-----9-----|
|--------9----11----------11-----------------------|
|--------------------------------------------------|
|--------------------------------------------------|


  F#5                                 N.C.
                                                  ~~
   S  S  S  S  S  S  S  S  S  S  S  S  S S   E    W
|----------------------------------------------|---------------------|
|-------12----------12----------12p11----------|---------------------|
|-12h13----13-12h13----13p12----12p11----------|-13------------------|
|----------------------------14-------14---\14-|---------------------|
|----------------------------------------------|---------------------|
|----------------------------------------------|---------------------|
|
|  H                       Q           E     E    E E  E  E E  E  Q
|----------------------------------------------|---------------------|
|----------------------------------------------|---------------------|
|----------------------------------------------|-11------11-------9--|
|-11----------------------------------------11-|----9-11----9-11-----|
|--9-----------------------------------9-------|---------------------|
|----------------------------------------------|---------------------|
|
|  H                       Q           E     E    E E  E  E E  E  Q
|----------------------------------------------|--9------------------|
|----------------------------------------------|---------12------12--|
|----------------------------------------------|---------------------|
|-11----------------------------------------11-|----9-11----9-11-----|
|--9-----------------------------------9-------|---------------------|
|----------------------------------------------|---------------------|


   Out-Chorus
    C#5      N.C.
    Gtr I
     H    Q  E  E    E E  E  E  E  E  E E
||----------------|-----------------------|
||o---------------|-----------------------|
||----------------|-----------------------|
||----------------|-11------11----11-11-9-|
||o-11---------11-|----9-11----11---------|
||---9-------9----|-----------------------|
|
|   Gtr II
|    H    Q  E  E    E E  E  E  E  E  E E
||----------------|-----------------------|
||o---------------|--9--------------------|
||----------------|---------11----11-11-9-|
||----------------|----9-11----11---------|
||o-11---------11-|-----------------------|
||---9-------9----|-----------------------|


  F#5      N.C.
   H    Q  E  E    E E  E  E E  E  Q
|---------------|----------------------||
|---------------|---------------------o||
|---------------|-11------11-------9---||
|-11---------11-|----9-11----9-11------||
|--9-------9----|---------------------o||
|---------------|----------------------||
|
|  H    Q  E  E    E E  E  E E  E  Q
|---------------|--9-------------------||
|---------------|---------12------12--o||
|---------------|----------------------||
|-11---------11-|----9-11----9-11------||
|--9-------9----|---------------------o||
|---------------|----------------------||


  N.C.
  PM|    PM  PM|      PM--|    PM--|
  E E  E E E E E  E   E E E  E E E E E
|-------------------|------------------|
|-------------------|------------------|
|-----11---9-----11-|-------11-------9-|
|-------------------|------------------|
|-------------------|------------------|
|-9-9----9---9-9----|-0-0-0----0-0-0---|
|
| Gtr II
| W                   W
|-------------------|------------------|
|-------------------|------------------|
|-------------------|------------------|
|-------------------|------------------|
|-------------------|------------------|
|-------------------|------------------|


  PM|    PM  PM|      PM
  E E  E E E E E  E   E  E E  E E E E  E
|-------------------|---------------------|
|-------------------|---------------------|
|-----11---9-----11-|-----------8-9-------|
|-------------------|------9-11-----9-11--|
|-------------------|---11----------------|
|-9-9----9---9-9----|-9-------------------|
|
| W                   E  E E  E E E E  E
|-------------------|---------------------|
|-------------------|---------------------|
|-------------------|---------------------|
|-------------------|-----------6-7-------|
|-------------------|------7--9-----7--9--|
|-------------------|----9----------------|



Behind the Screams

e|---3-----------5-----10----------10/12--8------------8/10----7----|
B|---------------------------8------------------8-------------------|
G|---------0--------0-----------0------------------0----------------|
D|---2--------2--2--------------------------------------------------|
A|----------------------7-----------------7--------------------6----|
E|------------------------------------------------------------------|

e|---5p3--3p2--2------------2h3p2-----2----3---------2-----3--|
B|--------------------3------------3-------------3------3-----|
G|------------------------------------------------------------|
D|---0-----------(0)----(0)-----------------------------------|
A|---------------------------------3-----2----2--2------------|
E|------------------------------------------------------------|

e|---3---0---5----3-----0----5----5-----0----7----12--|
B|-----5---5---5-----5-----5---5-----5-----5---5------|
G|-------------------------------------------------9--|
D|---2------------0-----0---------3-----3-------------|
A|----------------------------------------------------|
E|----------------------------------------------------|

e|-10\(7)-7-----10-----/12---7------7-----------------------------|
B|-10\(8)-8-----10-----/12---8----8----10---8----10----/12--------|
G|------------------------------9---------------------------7-----|
D|----------------------------------------------------------0-----|
A|----------------------------------------------------------------|
E|--0--------0------0------0------------8------8----8-------7-----|

e|--3----0---5-----3-----0----5----5-----0-----7-----12------|
B|-----5---5---5------5-----5---5-----5-----5-----5----------|
G|----------------------------------------------------9------|
D|--2--------------0-----0-----------------------------------|
A|---------------------------------3-----3-------------------|
E|----------------------------------------------------8------|

e|---7--5--5\3--3\---3--2------5--0--2----3---------2---3--|
B|---8--7--7\5--5\--------3----7----------------3-----3----|
G|-------------------------------------------4-------------|
D|---------------------------------------------------------|
A|-------------------0------0-----3-----3-------2----------|
E|---0-----------------------------------------------------|

e|-------------------------------------2----------2h3p2--0---|
B|---7-------7h8p7--5-----3----5-----------------------------|
G|--------------------------------(0)------------------------|
D|-------------------------------------0-------0-------------|
A|-------------------------------------------------------3---|
E|---0-----0-----------0-----0-------------------------------|

e|--10\(7)--7---10----/12-----7------7------------------------------|
B|--10\(8)--8---10----/12-----8----8------10--8----10-----/12-------|
G|-------------------------------9-----------------------------7----|
D|-------------------------------------------------------------0----|
A|------------------------------------------------------------------|
E|---0--------0----0-------0--------------8------8----8--------7----|

e|---3----0---5-----3-----0----5----5-----0----7-----12---|
B|------5---5---5------5-----5---5-----5-----5---5--------|
G|----------------------------------------------------9---|
D|---2--------------0-----0-------------------------------|
A|----------------------------------3-----3---------------|
E|----------------------------------------------------8---|

e|--------2----3---------2----3------/5--3-----2------0---|
B|---3------------0---3----------3----------------0-------|
G|--------------------------------------------------------|
D|------------------------------------0-----0--1----------|
A|---3-------2--------2-----3-----------------------------|
E|----------------------------------------------------0---|




Deciet is Striking Gold

e|-------------------------------|
B|-------------------------------|
G|-------------------------------|
D|-------------------------------|
A|--7--7--8--8--9--9--10-10-12---|
E|--5--5--6--6--7--7--8--8--10---|

e|-----------------------------------|
B|-----------------------------------|
G|-----------------------------------|
D|-----9---8---7------/7-------------|
A|-----7---6---5--0-3----7-5---------|
E|-0-----0---0---------------7-5-3---|

e|-----------------------------------|
B|-----------------------------------|
G|-----------------------------------|
D|-------------------/7--------------|
A|-------7-6--5----3----7-5----------|
E|-0---0---------5----------7-5-3----|

e|-------------------------------------------------|
B|-------------------------------------------------|
G|---------------------------2-1-------------------|
D|---/7-6---2-4---2-4--------------2-4---2-4-------|
A|--------4-----4-----4-2--------4-----4-----4-2---|
E|-2-----------------------2-----------------------|

e|--------------------------------------------|
B|--------------------------------------------|
G|--------------------------------------------|
D|--------------------------------------------|
A|---4------------5----------2----------------|
E|-2---2--2-2-5-5---5-7-7--0---0-0-0-2-2-5-2--|



As the Tables Turn

Verse Riff
D|-------------------------------------|
A|-------------------------------------|
F|-------------------------------------|
C|-------------------------------------|
G|-------44-66666644-66666666-66666688-|
D|-666666------------------------------|

Pre-Chorus Riff
D|-------------------------------------------------|
A|-------------------------------------------------|
F|-------------------------------------------------|
C|-------------------------------------------------|
G|----44-66----44-66----44----99-66----99-66----88-|
D|-66-------66-------66----66-------66-------66----|

Chorus Riff
D|------------------|-------------------|
A|------------------|-------------------|
F|---------66-------|-----66-------55---|
C|-----8------6---6-|---8----6---6----6-|
G|---8---8------8---|-6--------8--------|
D|-6----------------|-------------------|

Solo
D|---------------------------------------16-(16)-(16)-|
A|-16-16/18\14-14/16\12-12/14\10-10/12\9--------------|
F|----------------------------------------------------|
C|----------------------------------------------------|
G|----------------------------------------------------|
D|----------------------------------------------------|

D|-16-16/18\14-14/16\12-12/14\11-11/12\9-/21v-|
A|--------------------------------------------|
F|--------------------------------------------|
C|--------------------------------------------|
G|--------------------------------------------|
D|--------------------------------------------|


Sniped

Intro
e|-----------------|
B|-----------------|
G|-----------------|
D|-----5-------5---|
A|-5-7---7-5-7---7-|
E|-----------------|

Verse
e|----------------------------------|
B|----------------------------------|
G|---------------------------101010-|
D|---------------------------101010-|
A|-2-2-2-2-2-2-2-2-2-2-2-2-2-8-8-8--|
E|-0-0-0-0-0-0-0-0-0-0-0-0-0--------|

e|----------------------------------|
B|----------------------------------|
G|----------------------------------|
D|-9-9-9-9-7-7-7-7-4-4-4-4-7-7-7-7--|
A|-7-7-7-7-5-5-5-5-2-2-2-2-5-5-5-5--|
E|----------------------------------|

e|-----------------------------------|
B|-----------------------------------|
G|-----------------------------------|
D|-----------------------------------|
A|-/7-7-7-7-7-7-7-7-7-7-7-7-7-7-5-5--|
E|-/5-5-5-5-5-5-5-5-5-5-5-5-5-5-3-3--|

e|----------------------------|
B|----------------------------|
G|----------------------------|
D|----------------------------|
A|-7-7-7-7-9-9-9-9-10101010-9-|
E|-5-5-5-5-7-7-7-7-8-8-8-8--7-|

Pre-Chorus
e|---------------------------------|---------------------------|
B|---------------------------------|---------------------------|
G|---------------------------------|---------------------------|
D|-6-6-6-6-6-6-6-6-6-6-6-6-6-6-4-4-|-6-6-6-6-4-4-4-4---------4-|
A|-4-4-4-4-4-4-4-4-4-4-4-4-4-4-2-2-|-4-4-4-4-2-2-2-2-6-6-6-6-2-|
E|---------------------------------|-----------------4-4-4-4---|


Chorus
e|-------------------------------------------------|
B|-------------------------------------------------|
G|-----------------------5-----9-------------------|
D|----------------5------------------9-----5-------|
A|-2-2-2-2---2-2----5--7---7-5---7-5---7-5---7-5---|
E|-0-0-0-0---0-0-----------------------------------|

e|-------------------------------------------------|
B|-------------------------------------------------|
G|-5-----9-----------------------------------------|
D|-------------9-----5-----7-----7-----5-----4-----|
A|---7-5---7-5---7-5---7-5---5-3---5-3---5-3---3-5-|
E|-------------------------------------------------|

solo:

  Guitar 1:
e|------------------------------------------------------------------|
B|------------------------------------------------------------------|
G|------------------------------------------------------------------|
D|---------------5----------------------9----7----12--11--9--7---5--|
A|-2-2-2-2--2-2----5--7---10------------7----5----10--9---7--5---3--|
E|-0-0-0-0--0-0-----------8-----------------------------------------|
 |Guitar 2:                                                         |
e|------------------------------------------------------------------|
B|-------------------3/---5--------7/8--7---------10--------/12-----|
G|-------------------------------------------7-------------------12-|
D|------------------------------------------------------------------|
A|------------------------------------------------------------------|
E|------------------------------------------------------------------|

  Guitar 1:
e|------------------------------------------------------------------|
B|------------------------------------------------------------------|
G|--------------16---14----------11-----------12--------16--14------|
D|-5------------14---12----------9------------10--------14--12------|
A|-3------------14---12----------9------------10--------14--12------|
E|--------------12---10----------7------------8---------12--10------|
 |Guitar 2:                                                         |
e|------------------------/10-----------10---/12--14/15-14----------|
B|---------7/8--7----------------12---------------------------------|
G|-12---9-----------------/7------------------------------------15--|
D|------------------------------------------------------------------|
A|------------------------------------------------------------------|
E|------------------------------------------------------------------|

  Guitar 1:
e|---------------------------------------------------------------|
B|---------------------------------------------------------------|
G|----------------7----------------16---14-----------11----------|
D|-12--11--9--7---5----------------14---12-----------9-----------|
A|-10--9---7--5---3----------------14---12-----------9-----------|
E|---------------------------------12---10-----------7-----------|
 |Guitar 2:                                                      |
e|---------------------------------14--------10------7-----10----|
B|-10---------12-------------7/8---------------------------------|
G|----------------12-------9-------11--------7-------4-----------|
D|---------------------------------------------------------------|
A|---------------------------------------------------------------|
E|---------------------------------------------------------------|


Don't Hold your Breath


D-------------------------------------------------|
A-------------------------------------------------|
F-------------------------------------------------|
C------------------------------------2-2-2-2-0-2--|
G---3----7-5-3-5-5-5-----3-2-2-2-3-2-------------3|
D-5--5-5*------------5---------------------------5|


Chorus

D-------------------------------------------------|
A-------------------------------------------------|
F-------------------------------------------------|
C-10----7----10----7---3--5-5-5-5-6-6-6-6-7-7-----|
G-10----7----10----7---3--5-5-5-5-6-6-6-6-7-7-----|
D-8-----5----8-----5---1--3-3-3-3-4-4-4-4-5-5-----|

Pre-Verse

D-----3-0------7--------3-0-|
A----------------8--3-5-----|
F---------------------------|
C---------------------------|
G-3-3-----5-5---------------|
D---------------------------|


Solo

D---------------------------------------|
A---------------------------------------|
F---------------------------------------|
C-7-9-10-12-14/12-10-10-9-5-5-10-9-5-5-7|
G---------------------------------------|
D---------------------------------------|

D----------------15-17-15-13-12-13-15---|
A-7-8-10----8---------------------------|
F--------9----7-------------------------|
C---------------------------------------|
G---------------------------------------|
D---------------------------------------|

End

Plz comment & Rate
Related for An Answer Can Be Found tab