Song name
# A B C D E F G H I J K L M N O P Q R S T U V W X Y Z

Cky - Victory Over Neptune tab

Author/Artist: CKY
Title: Victory(Over Neptune)
Album:Universal Culture Shock
Transcribed by: Kyle Ganger
Email: kisaldisal22@yahoo.com
Tuning: 1/2 step down or 1 full step

I realized I kinda messed up and i made some corrections I'm pretty sure this is 98% correct ENJOY!

\=slide

Part A x4
-|----------------------------------------------------------------------------|
-|----------------------------------------------------------------------------|
-|----------------------------------------------------------------------------|
-|--------5-----7--5---------7\9--9--7--5--7--7--0----------------------------|
-|-----\7---7----------5--7---------------------------------------------------|
-|----------------------------------------------------------------------------|

Part B x2
-|----------------------------------------------------------------------------------------|
-|----------------------------------------------------------------------------------------|
-|----------------------------------------------------------------------------------------|
-|---9---10---9---9----9---10--9---9-----------9----10----9----9---------9----10--12--14--|
-|-8---8----8---8----8---8-------8-------10/12---12----12---12-----10/12---12---12--12----|
-|----------------------------------------------------------------------------------------|
 pm.   .    .   .         .    .     .    .      .    .

Part C (fade out)I think Deron uses reverse power cords also this part sounds better 1 
step down since the song has layered guitars
-|----------------------------------------------------------------------------|
-|----------------------------------------------------------------------------|
-|----------------------------------------------------------------------------|
-|----------------------------------------------------------------------------|
-|-2----4---0---4-4-0--4--2-----5--5/7--5/7--10/12--10--12--------------------|
-|----------------------------------------------------------------------------|
Tap to rate this tab
# A B C D E F G H I J K L M N O P Q R S T U V W X Y Z