Song name
# A B C D E F G H I J K L M N O P Q R S T U V W X Y Z

Cky - Woe Is Me tab

Help us improve GuitareTab! Take a short survey!
---Woe Is me---

Preformed live in West Chester, PA 6/2/2007


Main riff:
--------------------------------------------|
--------------------------------------------|
--------------------------------------------|
-----------4~---------2~--------2-----2-----|
-4-----2-4--------2-4-------2-4---2-4----0--|
-2------------------------------------------|


Chorus:
---------|
---------|
---------|
-7/9-----|
-7/9-----|
-5/7-0-0-|  play 10x

After chorus:
---------------------------------|
---------------------------------|
---------------------------------|
-6-6-6-6-6-6-6-6--2-2-2-2-2------|
-6-6-6-6-6-6-6-6--2-2-2-2-2------|
-4-4-4-4-4-4-4-4--0-0-0-0-0------|


Breakdown:
--------------------------------------------|
--------------------------------------------|
--------------------------------------------|
---------------------------2----------------|
-------------------2-4-2-4---4-2-4----------|
--0-2-0-2-5-2-0-2-------------------5-3-0-1-|
Related for Woe Is Me tab