Song name
# A B C D E F G H I J K L M N O P Q R S T U V W X Y Z

Clan Of Xymox - Agonized By Love chords

Highlighted       Show chord diagrams
Clan of Xymox - Agonized by Love

INTRO:
e|-------------------------------------------------------------------------------|
B|-----------3------2----------3------2---------3------2---------3------2--------|
G|--------2-----2----------2------2----------2------2----------2-----2-----------|
D|-----2-----------------2-----------------2-----------------2-------------------|
A|--O-----------------O-----------------O-----------------O----------------------|
E|-------------------------------------------------------------------------------|

e|-------------------------------------------------------------------------------|
B|---------1-----O---------1-----O---------1-----O----------1-----O--------------|
G|------------O---------------O---------------O----------------O-----------------|
D|------O---------------O---------------O-----------------O----------------------|
A|----2---------------2---------------2------------------2-----------------------|
E|--3---------------3---------------3------------------3-------------------------|

A, G, A, G

F                               G
I CRAWLED THROUGH THE FORGOTTEN HOUSE
                      F
IN OPEN AIR I WILL BE APPEASED
                       G
RUBY-LESS SETTINGS ON A TERRACE HILL,
            A
THEY SEEMED SWALLOWED BY THE SUN
            G
THEY SEEMED SWALLOWED BY THE SUN

A
IT IS EVEN HOT
                         G
IT IS EVEN HOT UNDER THE BLUE MOON

I CAN'T SLEEP
F                       G
I AM DEEPLY AGONIZED BY YOU
                   F
DEEPLY AGONIZED BY LOVE
                       G
I'M DEEPLY AGONIZED BY YOU
                   C
DEEPLY AGONIZED BY LOVE

D, C, D, G, A, G

A
MADDING CROWD IN MY VIEW
           G
SQUIGGLE MYSELF UNDERNEATH

I SAY
F                         G                         F
THE STREAM FLOWS, THE SKY BLOWS AS A SULTRY BREEZE
                      G
AND THE MADDING CROWD STILL IN MY VIEW
C
I THINK
            D
I AM DEEPLY AGONIZED BY YOU
     C         D
I AM DEEPLY AGONIZED BY YOU
        G
BY YOUR LOVE

A, A, G, G, A, A, G, G

F, G, F, G, A, G, A, G

    F
SHE COMES
             G
SHE COMES MY WAY
         F
HERE SHE COMES
             G
SHE COMES MY WAY
C                       D
A BLURRED MOON THROWS A SHADOW ON MY FACE
    C                                     D
THE BLACK SEA DASHED LIKE A THUNDER IN MY EARS
            G
I AM DEEPLY AGONIZED BY YOU
   A
BY YOUR LOVE
Tap to rate this tab
# A B C D E F G H I J K L M N O P Q R S T U V W X Y Z