Song name
# A B C D E F G H I J K L M N O P Q R S T U V W X Y Z

Clannad - Dango Daikazoku tab

Clannad - Dango Daikazoku
(For the Rhythm check the MP3)

Intro (Harmonic version)
e|--------------------------------------------------------|
B|----------------------12--------------------------------|
G|-------12--12-------------12------------12--12-------12-|
D|---12----------7--7-----------12----12----------7-7-----|
A|-7--------------------------------7---------------------|
E|--------------------------------------------------------|

Into (Normal version)
e|-----3--3--5--5--7--3---------3--3--5--5--3----|
B|-5-3-------------------3--5-3------------------|
G|-----------------------------------------------|
D|-----------------------------------------------|
A|-----------------------------------------------|
E|-----------------------------------------------|

Verse 1
e|-----3--3--5--5--7--3---------3--3--5--5--7--5-|
B|-5-3-------------------3--5-3------------------|
G|-----------------------------------------------|
D|-----------------------------------------------|
A|-----------------------------------------------|
E|-----------------------------------------------|

e|-----3--3--5--5--7--3---------3--3--5-5--3-|
B|-5-3-------------------3--5-3--------------|
G|-------------------------------------------|
D|-------------------------------------------|
A|-------------------------------------------|
E|-------------------------------------------|

Verse 2
e|-8-7-----------5-----------------8-7-----------5-------|
B|------8--5--8-----5--8-----5--8-------8--5--8-----5-8-|
G|------------------------7------------------------------|
D|-------------------------------------------------------|
A|-------------------------------------------------------|
E|-------------------------------------------------------|

e|-8-7-----------5-------------------------------------|
B|------8--5--8-----5--8-----58-----8-----------------|
G|------------------------7-------7-----5--5--7--5--7-5|
D|-----------------------------------------------------|
A|-----------------------------------------------------|
E|-----------------------------------------------------|

Chorus
e|------------5-5----------5-7--10-5-7---------5-5-----------10-7-|
B|----------8-------8-5--8--------------8-5-8-------85-8-5------|
G|--------7-------------------------------------------------------|
D|-(7)-7----------------------------------------------------------|
A|----------------------------------------------------------------|
E|----------------------------------------------------------------|

e|------------5-5----------5-7--10-5-7-----------------------|
B|----------8-------8-5--8---------------8-7--5-5-7-8--7-8-|
G|--------7--------------------------------------------------|
D|-(7)-7-----------------------------------------------------|
A|-----------------------------------------------------------|
E|-----------------------------------------------------------|

Steps to the song:
Intro x1 (Slowly)
Verse 1 x1 
Verse 2 x1 
Chorus x2 (Moderato)

The notes in brackets need not be played; these notes are sometimes hard to fit in
(doesn't sound right when playing it) but they are actually a part of the song.
Tap to rate this tab
# A B C D E F G H I J K L M N O P Q R S T U V W X Y Z