Song name
# A B C D E F G H I J K L M N O P Q R S T U V W X Y Z

Clannad - Dango Daikazoku tab

 
E||------------------------------------|---------------------------------|
B||------------------------------------|---------<>12--------------------|
G||-------------<>12----<>12-----------|-----------------<>12------------|
D||-------<>12------------------<>7----|--<>7--------------------<>12----|
A||--<>7-------------------------------|---------------------------------|
E||------------------------------------|---------------------------------|

---------------------------------------|----------------------|
---------------------------------------|----------------------|
-------------<>12----<>12--------------|--<>12----------------|
-------<>12------------------<>7--<>7--|----------------------|
--<>7----------------------------------|----------------------|
---------------------------------------|----------------------|
   
--0-----3----3----5----|--------7--------------|--0-----3----3----5----|
-----3-----------------|--10---------8---------|-----3-----------------|
-----------------------|------------------7----|-----------------------|
-------------2---------|-----------------------|-------------2---------|
--3--------------------|-------------7---------|--3--------------------|
-----------------------|---7-------------------|-----------------------|


   Q    Q     H           E  E  Q    Q    Q        Q    Q    Q    Q     
--------7--------------|--0-----3----3----5----|--------7--------------|
--10---------10--------|-----3-----------------|--10---------8---------|
-----------------------|-----------------------|------------------7----|
-----------------------|-------------2---------|-----------------------|
--------------9--------|--3--------------------|---7---------7---------|
---7-------------------|-----------------------|---7-------------------|

--0-----3----3----5----|--3-----------------|--8--7-----0-----3--5--0--|
-----3-----------------|-----------3--------|--------8-----------------|
-----------------------|--0-----------------|--------------2-----------|
-------------2---------|-----------4--------|--------------------------|
--3--------------------|--------------------|--8-----------------------|
-----------------------|--------------------|--------------------------|

--3---------0----3----|--8--7-----0-----3--5--0--|--3-------------------|
-------3--------------|--------8-----------------|----------------------|
--0-------------------|--------------0-----------|--0--------------0----|
------------0---------|--------------------------|-------0----2---------|
----------------------|--7-----------------------|----------------------|
----------------------|--------------------------|----------------------|

--8--7-----0-----3--5--0--|--3---------0----3----|---------3------------|
--8-----8-----------------|-------3--------------|--3---------1------1--|
--------------2-----------|--0-------------------|----------------------|
--------------------------|------------0---------|----------------------|
--8-----------------------|----------------------|--2-------------------|
--------------------------|----------------------|----------------------|

--------------------3--5--|--5----3--0------------7--|
--3--1--3--1-----3--------|----------------8--10-----|
--------------2-----------|-------------0------------|
--------------0-----------|--------------------------|
--------------0-----------|--3-----------------------|
--------------------------|--------------------------|

--10------7----3-----3--5--|--5----3--0-------------10--|
------10-------3--3--0-----|-----------------10--8------|
---------------------------|--------------9-------------|
---------------------------|-------------10-------------|
---------------------------|--3-------------------------|
---7-----------------------|----------------------------|
   
--7---------------3--5--|--5----3--0-----------7--|--10------7----3----2----|
---------------3--------|----------------7--8-----|------10-------3----0----|
------------2-----------|-------------0-----------|-------------------------|
------------4-----------|-------------------------|-------------------------|
------------------------|--3----------------------|-------------------------|
--7---------2-----------|-------------------------|---7---------------------|
      
--0--------0--2----3--2--|--L--3----------------|-------||
--------1----------------|----------------------|-------||
-----0-------------------|----------------------|-------||
--------------0----------|----------------------|-------||
--3----------------------|----------------------|-------||
-------------------------|----------------------|-------||

<>= normal harmonics
Tap to rate this tab
# A B C D E F G H I J K L M N O P Q R S T U V W X Y Z