Song name
# A B C D E F G H I J K L M N O P Q R S T U V W X Y Z

Clannad - Robin The Hooded Man chords

ROBIN (THE HOODED MAN)  -       Clannad


  A       Asus4    F  Em7 Asus4  A       Asus2    F  Em7  G A   
e|0--------0------/1---0---0-0--/0--------0------/1---0---3-0---/
B|2--3-2---0-2----/1---3---3-2--/2--3-2---0-2----/1---3---0-2---/
G|2------2-2---2--/2---0---2-2--/2------2-2---2--/2---0---0-2---/
D|2--------2-----2/3---0---2-2--/2--------2-----2/3---0---0-2---/
A|0--------0------/3---2---0-0--/0--------0------/3---2---2-0---/
E|----------------/1---0--------/----------------/1---0---0-----/


Intro:
e|------5--/
B|5--------/
G|---7-----/
D|---------/
A|---------/
E|---------/


A -      Asus4 - A -     F - Em7 - Asus2 - A -
A -      Asus4 - A -     F - Em7 - Asus2 - A 

Dm7              G/E             Asus2        A          G - A                           
      Robin                 the         hoo -     ded man 

A -      Asus4 - A 


A -      Asus4 - A -     F - Em7 - Asus2 - A -
A -      Asus4 - A -     F - Em7 - G/E - A 

Dm7              G/E             Asus2        A          G - A                           
      Robin                 the         hoo -     ded man 
Dm7              G/E             Asus2        A          G - A                           
      Robin                 the         hoo -     ded man 

A -      Asus4 - A 


A -      Asus4 - A -     F - Em7 - Asus2 - A -
A -      Asus4 - A -     F - Em7 - Asus2 - A 

Dm7              G/E             Asus4        A          G - A                           
      Robin                 the         hoo -     ded man 

Dm7 -      G/E -       Asus4 - A -     Gi - Ai 

Dm7              G/E             Asus4        A          G - A                           
      Robin                 the         hoo -     ded man 


Outro:
A -      Asus4 - A      8x start fading at 5th 



A     x02220
Asus4 x02230
F     133211
Em7   020030
Dm7   xx0211
G/E   xx2433
      020003
      020033
G     320003
Gi    355433
Ai    577655
Tap to rate this tab
# A B C D E F G H I J K L M N O P Q R S T U V W X Y Z