Song name
# A B C D E F G H I J K L M N O P Q R S T U V W X Y Z

Clannad - Darkmere tab

DARKMERE        -       Clannad


e|------------7----5----/
B|------------8----6----/
G|7-9-----7---7----5----/
D|----7-9-----0----0----/
A|-----------------0----/
E|------------7---------/

e|5-------7---------------/       /5-------7-------------/
B|6---5---8---3-----------/       /6---5---8---3---------/
G|7---5---9---4-----------/  [3x] /7---5---9---4---------/
D|7---7---9---5-----------/       /7---7---9---5---------/
A|5---7---7---5-5-3-2-3-5-/       /5---7---7---5-5-3-2---/
E|----5-------3-----------/       /----5-------3---------/

e|------------7----5---10---/
B|------------8----6--------/
G|7-9-----7---7----5--------/
D|----7-9-----0----0--------/
A|-----------------0--------/
E|------------7-------------/

e|5-------7---------------/       /5-------7-------------/
B|6---5---8---3-----------/       /6---5---8---3---------/
G|7---5---9---4-----------/  [3x] /7---5---9---4---------/
D|7---7---9---5-----------/       /7---7---9---5---------/
A|5---7---7---5-5-3-2-3-5-/       /5---7---7---5-5-3-2---/
E|----5-------3-----------/       /----5-------3---------/

e|------------7----5---10---/
B|------------8----6--------/
G|7-9-----7---7----5--------/
D|----7-9-----0----0--------/
A|-----------------0--------/
E|------------7-------------/

e|5-------7---------------/       /5-------7-------------/
B|6---5---8---3-----------/       /6---5---8---3---------/
G|7---5---9---4-----------/  [3x] /7---5---9---4---------/
D|7---7---9---5-----------/       /7---7---9---5---------/
A|5---7---7---5-5-3-2-3-5-/       /5---7---7---5-5-3-2---/
E|----5-------3-----------/       /----5-------3---------/

e|------------7----5---10---/
B|------------8----6--------/
G|7-9-----7---7----5--------/
D|----7-9-----0----0--------/
A|-----------------0--------/
E|------------7-------------/

e|5-------7---------------/       /5-------7-------------/
B|6---5---8---3-----------/       /6---5---8---3---------/
G|7---5---9---4-----------/  [3x] /7---5---9---4---------/
D|7---7---9---5-----------/       /7---7---9---5---------/
A|5---7---7---5-5-3-2-3-5-/       /5---7---7---5-5-3-2---/
E|----5-------3-----------/       /----5-------3---------/

e|------------7----5---10---//
B|------------8----6--------//
G|7-9-----7---7----5--------//
D|----7-9-----0----0--------//
A|-----------------0--------//
E|------------7-------------//

Tap to rate this tab
# A B C D E F G H I J K L M N O P Q R S T U V W X Y Z