Song name
# A B C D E F G H I J K L M N O P Q R S T U V W X Y Z

Clannad - Siuil A Ruin tab

Siúil a Rúin-Clannad
Tabbed by: Asho-4444, aisling_4444@hotmail.com

Standard tuning:EADGBe

E-----------------------------------------------------------|
A-----------------------------------------------------------|
D--------------------------------------------------------2--|
G-------------------2-0--2--2-0-2-------2---------------2-0-|
B---1-3-------1-3-1----------------0-1--------------3-1-----|
e--------0--0-----------------------------3-3--0-0----------|


E-----------------------------------------------------------|
A-----------------------------------------------------------|
D-----------------------------------------------------------|
G--0-2-2-----------2--2-0-2------------------------2--0-----|
B--------0-1-1-3-1------------1-3------3-1---3---1----------|
e----------------------------------0-------0----------------|
Tap to rate this tab
 
# A B C D E F G H I J K L M N O P Q R S T U V W X Y Z