Guitaretab - guitar tabs
Song name
# A B C D E F G H I J K L M N O P Q R S T U V W X Y Z

Clap Your Hands Say Yeah - Is This Love tab

Artist: Gabe bondoc
Song: Is this love (cover)
Gabe did this song during the open mic on the M.A.T.A.A.S. retreat. he fingerpicked
this song. you can find the song at:http://mataas.leejaybeats.com/
listen to the song to find the excact fingerpicking pattern. this is just what I
play. email me at gee-mail@hotmail.com for questions or whatever.
              -JMacapinlac
[ Tab from: http://www.guitaretab.com/c/clap-your-hands-say-yeah/141096.html ]
tuning:standard
Intro/Verse
e|-----2------------------------------------------|
B|-----2----------------------3-3-3-3---2-2-2-2---|
G|----------------2-----------2-2-2-2---2-2-2-2---|
D|-------4-2--4------4---2-4--0-0-0-0-0-----------|
A|---------------------4----------------0-0-0-0-0-|
E|--2---------------------------------------------|

Pre-Chorus
e|----------------------------|
B|-5-5---5-5-5-5-5-4-3--3-3-3-|
G|-4-4--4--4-4-4-4-3-2--2-2-2-|
D|----------------------------|
A|-4---4---4-4-4-4-3-2-----2--|
E|----------------------------|

Chorus
e|-------------------|
B|-5--5--5---3--3--3-|
G|-4--4--4---2--2--2-|
D|-------------------|
A|-4-----4---2-----2-|
E|-------------------|
Related for Is This Love tab
Advertisement will be closed in 10 seconds