Song name
# A B C D E F G H I J K L M N O P Q R S T U V W X Y Z

Clap Your Hands Say Yeah - Skin Of My Yellow Country Teeth tab

----------------------------------------------------------------------------
			     The Skin of My Yellow Country Teeth
                                 Clap Your Hands Say Yeah
----------------------------------------------------------------------------
http://clapyourhandssayyeah.com/


Tabbed by: George Knights
Email: stouffer2003@hotmail.com

Tuning:EADGBe

Intro: use distortion to recreate the keyboard like sound

 E---------------------------------------------|
 B---------------------------------------------|
 G---------------------------------------------|
 D-14-12------15-17-15-14----------------------|
 A-------15------------------------------------|
 E---------------------------------------------|

(Clean)
               
 E----12---12---12---12----13/12/13/12-----------------|
 B-----------------------------------------------------|
 G--9----9----9----9-----------------------------------|
 D-----------------------------------------------------| x3
 A-----------------------------------------------------|
 E-----------------------------------------------------|

 E----12---12---12---12--13/12/13/12-12b13-------------|
 B-----------------------------------------------------|
 G--9----9----9----9-----------------------------------|
 D-----------------------------------------------------| 
 A-----------------------------------------------------|
 E-----------------------------------------------------|


Verse 1
    
 E----------------3-------1----------------------------|
 B--5-------------3-------1----------------------------|
 G--5-------------4-------2----------------------------|
 D--5-let ring----5-x8----3-x8-------------------------| x6 
 A--3-------------5-------3----------------------------|
 E----------------3-------1----------------------------|

Chorus

 E----------------3-------1----------------------------|
 B--5-------------3-------1----------------------------|
 G--5-------------4-------2----------------------------|
 D--5-x16---------5-x8----3-x8-------------------------| x2 
 A--3-------------5-------3----------------------------|
 E----------------3-------1----------------------------|


 E----12---12---12---12----13/12/13/12-----------------|
 B-----------------------------------------------------|
 G--9----9----9----9-----------------------------------|
 D-----------------------------------------------------| x3
 A-----------------------------------------------------|
 E-----------------------------------------------------|

 E----12---12---12---12--13/12/13/12-12b13-------------|
 B-----------------------------------------------------|
 G--9----9----9----9-----------------------------------|
 D-----------------------------------------------------| 
 A-----------------------------------------------------|
 E-----------------------------------------------------|


Verse 2 

 E----------------3-------1-------------------------------|
 B--5-------------3-------1-------------------------------|
 G--5-------------4-------2-------------------------------|
 D--5-let ring----5-x8----3-x8----------------------------| x 2
 A--3-------------5-------3-------------------------------|
 E----------------3-------1-------------------------------|


 E----------------3-------1-------------------------------|
 B--5-------------3-------1-------------------------------|
 G--5-------------4-------2-------------------------------|
 D--5-x16---------5-x8----3-x8----------------------------| x 6 
 A--3-------------5-------3-------------------------------|
 E----------------3-------1-------------------------------|

Break

 E---------------------------------------------|
 B---------------------------------------------|
 G---------------------------------------------|
 D-14-12------15-17-15-14----------------------|
 A-------15------------------------------------|
 E---------------------------------------------|


 E------------------------------------------------|
 B------------------------------------------------|
 G------------------------------------------------|
 D------------------------------------------------|
 A-3-3--3-3-3--3-3-3-3-3/7-7--7-7-7--5-7-5-7-8-7--|
 E------------------------------------------------|


 E------------------------------------------------|
 B------------------------------------------------|
 G------------------------------------------------|
 D------------------------------------------------|
 A-3-3--3-3-3--3-3-3-3-3/7-7--7-7-7---5-3-5-3------|
 E------------------------------------------------|

 Bridge

 E------------------------------------------------|
 B------3--------1--------3---------3-------------|
 G--------4--------2--------4---------5-----------|
 D--------------------------------5---------------|
 A----5---------3-------5-------3-----------------|
 E--3---------1-------3---------------------------|


 E---------------------------------------------------|
 B------3--------1--------3------------3-------------|
 G--------4--------2--------4------------5-----------|
 D-----------------------------------5---------------|
 A----5---------3-------5----------3-----------------|
 E--3---------1-------3------------------------------|

 E---------------------------------------------------|
 B----- 3--------3----------3------------------------|
 G--------5---------5---------5----------------------|
 D----5--------5----------5--------------------------|
 A--3--------3----------3----------------------------|
 E---------------------------------------------------|

Verse 3
    
 E----------------3-------1-------------------------------|
 B--5-------------3-------1-------------------------------|
 G--5-------------4-------2-------------------------------|
 D--5-let ring----5-x8----3-x8----------------------------| x 6
 A--3-------------5-------3-------------------------------|
 E----------------3-------1-------------------------------|

Chorus

 E----------------3-------1-------------------------------|
 B--5-------------3-------1-------------------------------|
 G--5-------------4-------2-------------------------------|
 D--5-x16---------5-x8----3-x8----------------------------| x6 
 A--3-------------5-------3-------------------------------|
 E----------------3-------1-------------------------------|



 E----12---12---12---12----13/12/13/12-----------------|
 B-----------------------------------------------------|
 G--9----9----9----9-----------------------------------|
 D-----------------------------------------------------| x3
 A-----------------------------------------------------|
 E-----------------------------------------------------|

 E----12---12---12---12--13/12/13/12-12b13-------------|
 B-----------------------------------------------------|
 G--9----9----9----9-----------------------------------|
 D-----------------------------------------------------| 
 A-----------------------------------------------------|
 E-----------------------------------------------------|

Outro 

 E---------------------------------------------|
 B---------------------------------------------|
 G---------------------------------------------|
 D-14-12------15-17-15-14----------------------|
 A-------15------------------------------------|
 E---------------------------------------------|




| /  slide up
| \  slide down
| h  hammer-on
| p  pull-off
| ~  vibrato
| +  harmonic
| x  Mute note
===============================================================================
Tap to rate this tab
# A B C D E F G H I J K L M N O P Q R S T U V W X Y Z