Song name
# A B C D E F G H I J K L M N O P Q R S T U V W X Y Z

Clap Your Hands Say Yeah - Details Of The War tab

DETAILS OF THE WAR - CLAP YOUR HANDS SAY YEAH!
----------------------------------------------

This is an absolutely magic song.  There's more than one guitar playing throughout the
song (obviously) so i've just tabbed the guitar that starts the song So on it's own it
may sound a little empty but if you play along with the song it's great! Enjoy...

    C (x32010)
Fmaj7 (133210)
   C* (x3201x)



	  (C)               (F)               (C)               (F)
V1:	e|-0---------------|-----------------|-0---------------|-----------------|
	B|---------1-------|-1-------1-------|---------1-------|-1-------1-------|
	G|-----0-----0---0-|-----2-----2---2-|-----0-----0---0-|-----2-----2---2-|
	D|---2---2-----2---|---3---3-----3---|---2---2-----2---|---3---3-----3---| (X2)
	A|-3---------------|-----------------|-3---------------|-----------------|
	E|-----------------|-1---------------|-----------------|-1---------------|

	  bloody sheets, tenderly she moves me.
	  an opera star dying hard for love.

	  (G)               (F)
	e|-----------------|-----------------|
	B|-0-------0-------|-1-------1-------|
	G|-----0-----0---0-|-----2-----2---2-|
	D|---0---0-----0---|---3---3-----3---|
	A|-----------------|-----------------|
	E|-3---------------|-1---------------|

	  you say i'm hurt, i will take your...

	  (C)               (F)               (C)               (F)
	e|-0---------------|-----------------|-0---------------|-----------------|
	B|---------1-------|-1-------1-------|---------1-------|-1-------1-------|
	G|-----0-----0---0-|-----2-----2---2-|-----0-----0---0-|-----2-----2---2-|
	D|---2---2-----2---|---3---3-----3---|---2---2-----2---|---3---3-----3---| (X2)
	A|-3---------------|-----------------|-3---------------|-----------------|
	E|-----------------|-1---------------|-----------------|-1---------------|

	  ...word.




	  (C)               (F)               (C)               (F)
V2:	e|-0---------------|-----------------|-0---------------|-----------------|
	B|-----------------|-1---------------|-----------------|-1---------------|
	G|-----0---0---0---|-----2---2---2---|-----0---0---0---|-----2---2---2---|
	D|---2---2---2---2-|---3---3---3---3-|---2---2---2---2-|---3---3---3---2-| (X2)
	A|-3---------------|-----------------|-3---------------|-----------------|
	E|-----------------|-1---------------|-----------------|-1---------------|

	  leather pants, happiness, a hundred dollars buys success.
	  hanging with your fashionable whores.

	  (G)               (F)
	e|-----------------|-----------------|
	B|-0---------------|-1---------------|
	G|-----4---4---4---|-----2---2---2---|
	D|---5---5---5---5-|---3---3---3---3-|
	A|-----------------|-----------------|
	E|-3---------------|-1---------------|

	  and i'm a wounded bird, i will take your...

	  (C)               (F)               (C)               (F)
	e|-0---------------|-----------------|-0---------------|-----------------|
	B|-----------------|-1---------------|-----------------|-1---------------|
	G|-----0---0---0---|-----2---2---2---|-----0---0---0---|-----2---2---2---|
	D|---2---2---2---2-|---3---3---3---3-|---2---2---2---2-|---3---3---3---2-| (X2)
	A|-3---------------|-----------------|-3---------------|-----------------|
	E|-----------------|-1---------------|-----------------|-1---------------|

	  ...word.



	  (C)               (F)               (C)               (F)
V3:	e|-0---------------|-----------------|-0---------------|-----------------|
	B|-----------------|-1---------------|-----------------|-1---------------|
	G|-----0---0---0---|-----2---2---2---|-----0---0---0---|-----2---2---2---|
	D|---2---2---2---2-|---3---3---3---3-|---2---2---2---2-|---3---3---3---2-| (X2)
	A|-3---------------|-----------------|-3---------------|-----------------|
	E|-----------------|-1---------------|-----------------|-1---------------|

	  you and tom at the prom, camel dick, crucifix.
	  everyone's the same and on and on.

	  (G)               (F)               (G)               (F)
	e|-----------------|-----------------|-----------------|-----------------|
	B|-0---------------|-1---------------|-0---------------|-1---------------|
	G|-----4---4---4---|-----2---2---2---|-----4---4---4---|-----2---2---2---|
	D|---5---5---5---5-|---3---3---3---3-|---5---5---5---5-|---3---3---3---3-|
	A|-----------------|-----------------|-----------------|-----------------|
	E|-3---------------|-1---------------|-3---------------|-1---------------|

	  emerging from the football stands, clinging to his broken hand

	  (C)               (F)               (C)               (F)
	e|-0---------------|-----------------|-0---------------|-----------------|
	B|-----------------|-1---------------|-----------------|-1---------------|
	G|-----0---0---0---|-----2---2---2---|-----0---0---0---|-----2---2---2---|
	D|---2---2---2---2-|---3---3---3---3-|---2---2---2---2-|---3---3---3---2-| (X3)
	A|-3---------------|-----------------|-3---------------|-----------------|
	E|-----------------|-1---------------|-----------------|-1---------------|

	  it's over i have seen it all before.



	  (C)               (F)               (C)               (F)
V4:	e|-0---------------|-----------------|-0---------------|-----------------|
	B|-----------------|-1---------------|-----------------|-1---------------|
	G|-----0---0---0---|-----2---2---2---|-----0---0---0---|-----2---2---2---|
	D|---2---2---2---2-|---3---3---3---3-|---2---2---2---2-|---3---3---3---2-| (X2)
	A|-3---------------|-----------------|-3---------------|-----------------|
	E|-----------------|-1---------------|-----------------|-1---------------|

	  nakedness, a flying lesson, tattered dress, sunburned chest.
	  you will pay for your excessive charm.

	  (G)               (F)               (G)               (F)
	e|-----------------|-----------------|-----------------|-----------------|
	B|-0---------------|-1---------------|-0---------------|-1---------------|
	G|-----4---4---4---|-----2---2---2---|-----4---4---4---|-----2---2---2---|
	D|---5---5---5---5-|---3---3---3---3-|---5---5---5---5-|---3---3---3---3-|
	A|-----------------|-----------------|-----------------|-----------------|
	E|-3---------------|-1---------------|-3---------------|-1---------------|

	  with a boy who knows less than he thinks, drinks up his expensive drinks

	  (C)               (F)               (C)               (F)
	e|-0---------------|-----------------|-0---------------|-----------------|
	B|-----------------|-1---------------|-----------------|-1---------------|
	G|-----0---0---0---|-----2---2---2---|-----0---0---0---|-----2---2---2---|
	D|---2---2---2---2-|---3---3---3---3-|---2---2---2---2-|---3---3---3---2-|
	A|-3---------------|-----------------|-3---------------|-----------------|
	E|-----------------|-1---------------|-----------------|-1---------------|

	  be careful with the details of the war



	  (C)               (F)               (C)               (F)
OUTRO:	e|-0---------------|-----------------|-0---------------|-----------------|
	B|---------1-------|-1-------1-------|---------1-------|-1-------1-------|
	G|-----0-------0---|-----2-------2---|-----0-------0---|-----2-------2---|
	D|---2---2---2---2-|---3---3---3---3-|---2---2---2---2-|---3---3---3---2-| (X6)
	A|-3---------------|-----------------|-3---------------|-----------------|
	E|-----------------|-1---------------|-----------------|-1---------------|


alternatively you could just start strumming:


	| C      | Fmaj7  | C      | Fmaj7 | (X6)

	| C*     |


either way end on  C*

and that's it!



-rigs-
Tap to rate this tab
 
# A B C D E F G H I J K L M N O P Q R S T U V W X Y Z